  0
SECTION
  2
HEADER
  9
$ACADVER
  1
AC1009
  9
$INSBASE
 10
0
 20
0
 30
0
  9
$EXTMIN
 10
0
 20
0
  9
$EXTMAX
 10
297
 20
210
  9
$LIMMIN
 10
0
 20
0
  9
$LIMMAX
 10
297
 20
210
  9
$LTSCALE
 40
1
  0
ENDSEC
  0
SECTION
  2
TABLES
  0
TABLE
  2
LTYPE
 70
     9
  0
LTYPE
  2
CONTINUOUS
 70
    64
  3
実線
 72
    65
 73
     0
 40
0.0
  0
LTYPE
  2
DASHED1
 70
    64
  3
--  --  --  --  --  --  --  --  
 72
    65
 73
     2
 40
2.5
 49
1.25
 49
-1.25
  0
LTYPE
  2
DASHED2
 70
    64
  3
----    ----    ----    ----    
 72
    65
 73
     2
 40
5.0
 49
2.5
 49
-2.5
  0
LTYPE
  2
DASHED3
 70
    64
  3
------  ------  ------  ------  
 72
    65
 73
     2
 40
5.0
 49
3.75
 49
-1.25
  0
LTYPE
  2
CENTER1
 70
    64
  3
----- - ----- - ----- - ----- - 
 72
    65
 73
     4
 40
10.0
 49
6.25
 49
-1.25
 49
1.25
 49
-1.25
  0
LTYPE
  2
CENTER2
 70
    64
  3
----------  --  ----------  --  
 72
    65
 73
     4
 40
20.0
 49
12.5
 49
-2.5
 49
2.5
 49
-2.5
  0
LTYPE
  2
PHANTOM1
 70
    64
  3
--- - - --- - - --- - - --- - - 
 72
    65
 73
     6
 40
10.0
 49
3.25
 49
-1.25
 49
1.25
 49
-1.25
 49
1.25
 49
-1.25
  0
LTYPE
  2
PHANTOM2
 70
    64
  3
--------  -  -  --------  -  -  
 72
    65
 73
     6
 40
20.0
 49
10.0
 49
-2.5
 49
1.25
 49
-2.5
 49
1.25
 49
-2.5
  0
LTYPE
  2
DOT
 70
    64
  3
-   -   -   -   -   -   -   -   
 72
    65
 73
     2
 40
2.5
 49
0.625
 49
-1.875
  0
LTYPE
  2
DUMMY
 70
    64
  3
ダミー
 72
    65
 73
     0
 40
0.0
  0
LTYPE
  2
RAND1
 70
    64
  3
ランダム線1
 72
    65
 73
     4
 40
10.0
 49
1.0
 49
-2.0
 49
3.0
 49
-4.0
  0
LTYPE
  2
RAND2
 70
    64
  3
ランダム線2
 72
    65
 73
     4
 40
14.0
 49
2.0
 49
-3.0
 49
4.0
 49
-5.0
  0
LTYPE
  2
RAND3
 70
    64
  3
ランダム線3
 72
    65
 73
     4
 40
18.0
 49
3.0
 49
-4.0
 49
5.0
 49
-6.0
  0
LTYPE
  2
RAND4
 70
    64
  3
ランダム線4
 72
    65
 73
     4
 40
22.0
 49
4.0
 49
-5.0
 49
6.0
 49
-7.0
  0
LTYPE
  2
RAND5
 70
    64
  3
ランダム線5
 72
    65
 73
     4
 40
26.0
 49
5.0
 49
-6.0
 49
7.0
 49
-8.0
  0
LTYPE
  2
LONG1
 70
    64
  3
----------  --  ----------  --  
 72
    65
 73
     4
 40
40.0
 49
32.5
 49
-2.5
 49
2.5
 49
-2.5
  0
LTYPE
  2
LONG2
 70
    64
  3
--------  -  -  --------  -  -  
 72
    65
 73
     6
 40
40.0
 49
30.0
 49
-2.5
 49
1.25
 49
-2.5
 49
1.25
 49
-2.5
  0
LTYPE
  2
LONG3
 70
    64
  3
+++++++++++++++..+++++++++++++++
 72
    65
 73
     2
 40
40.0
 49
37.5
 49
-2.5
  0
LTYPE
  2
LONG4
 70
    64
  3
+++++++++++++++..+++++++++++++++
 72
    65
 73
     2
 40
80.0
 49
75.0
 49
-5.0
  0
LTYPE
  2
LONG5
 70
    64
  3
----------  --  ----------  --  
 72
    65
 73
     4
 40
60.0
 49
37.5
 49
-7.5
 49
7.5
 49
-7.5
  0
LTYPE
  2
dashed
 70
   64
  3
-------   -------------   ------
 72
   65
 73
    2
 40
7.5
 49
6
 49
-1.5
  0
LTYPE
  2
dashed_spaced
 70
   64
  3
----        --------        ----
 72
   65
 73
    2
 40
12
 49
6
 49
-6
  0
LTYPE
  2
long_dashed_dotted
 70
   64
  3
------------- --- --------------
 72
   65
 73
    4
 40
15.25
 49
12
 49
-1.5
 49
0.25
 49
-1.5
  0
LTYPE
  2
long_dashed_double-dotted
 70
   64
  3
----------- --- --- ------------
 72
   65
 73
    6
 40
17
 49
12
 49
-1.5
 49
0.25
 49
-1.5
 49
0.25
 49
-1.5
  0
LTYPE
  2
long_dashed_triplicate-dotted
 70
   64
  3
--------- --- --- --- ----------
 72
   65
 73
    8
 40
18.75
 49
12
 49
-1.5
 49
0.25
 49
-1.5
 49
0.25
 49
-1.5
 49
0.25
 49
-1.5
  0
LTYPE
  2
dotted
 70
   64
  3
   -       -       -       -    
 72
   65
 73
    2
 40
1.75
 49
0.25
 49
-1.5
  0
LTYPE
  2
chain
 70
   64
  3
-------------- -- --------------
 72
   65
 73
    4
 40
18.5
 49
12
 49
-1.5
 49
3.5
 49
-1.5
  0
LTYPE
  2
chain_double_dash
 70
   64
  3
------------ -- -- -------------
 72
   65
 73
    6
 40
23.5
 49
12
 49
-1.5
 49
3.5
 49
-1.5
 49
3.5
 49
-1.5
  0
LTYPE
  2
dashed_dotted
 70
   64
  3
-----------     -     ----------
 72
   65
 73
    4
 40
9.25
 49
6
 49
-1.5
 49
0.25
 49
-1.5
  0
LTYPE
  2
double-dashed_dotted
 70
   64
  3
------   -----------   -   -----
 72
   65
 73
    6
 40
16.75
 49
6
 49
-1.5
 49
6
 49
-1.5
 49
0.25
 49
-1.5
  0
LTYPE
  2
dashed_double-dotted
 70
   64
  3
---------    -    -    ---------
 72
   65
 73
    6
 40
11
 49
6
 49
-1.5
 49
0.25
 49
-1.5
 49
0.25
 49
-1.5
  0
LTYPE
  2
double-dashed_double-dotted
 70
   64
  3
-----   ---------   -   -   ----
 72
   65
 73
    8
 40
18.5
 49
6
 49
-1.5
 49
6
 49
-1.5
 49
0.25
 49
-1.5
 49
0.25
 49
-1.5
  0
LTYPE
  2
dashed_triplicate-dotted
 70
   64
  3
-------    -    -    -    ------
 72
   65
 73
    8
 40
12.75
 49
6
 49
-1.5
 49
0.25
 49
-1.5
 49
0.25
 49
-1.5
 49
0.25
 49
-1.5
  0
LTYPE
  2
double-dashed_triplicate-dotted
 70
   64
  3
-----  ---------  -  -  -  -----
 72
   65
 73
   10
 40
20.25
 49
6
 49
-1.5
 49
6
 49
-1.5
 49
0.25
 49
-1.5
 49
0.25
 49
-1.5
 49
0.25
 49
-1.5
  0
LTYPE
  2
undefined
 70
   64
  3
--------------------------------
 72
   65
 73
    0
 40
0
  0
LTYPE
  2
_
 70
   64
  3
                                
 72
   65
 73
    0
 40
0
  0
LTYPE
  2
__18
 70
   64
  3
                                
 72
   65
 73
    0
 40
0
  0
LTYPE
  2
__19
 70
   64
  3
                                
 72
   65
 73
    0
 40
0
  0
LTYPE
  2
__20
 70
   64
  3
                                
 72
   65
 73
    0
 40
0
  0
LTYPE
  2
__21
 70
   64
  3
                                
 72
   65
 73
    0
 40
0
  0
LTYPE
  2
__22
 70
   64
  3
                                
 72
   65
 73
    0
 40
0
  0
LTYPE
  2
__23
 70
   64
  3
                                
 72
   65
 73
    0
 40
0
  0
LTYPE
  2
__24
 70
   64
  3
                                
 72
   65
 73
    0
 40
0
  0
LTYPE
  2
__25
 70
   64
  3
                                
 72
   65
 73
    0
 40
0
  0
LTYPE
  2
__26
 70
   64
  3
                                
 72
   65
 73
    0
 40
0
  0
LTYPE
  2
__27
 70
   64
  3
                                
 72
   65
 73
    0
 40
0
  0
LTYPE
  2
__28
 70
   64
  3
                                
 72
   65
 73
    0
 40
0
  0
LTYPE
  2
__29
 70
   64
  3
                                
 72
   65
 73
    0
 40
0
  0
LTYPE
  2
__30
 70
   64
  3
                                
 72
   65
 73
    0
 40
0
  0
LTYPE
  2
__31
 70
   64
  3
                                
 72
   65
 73
    0
 40
0
  0
LTYPE
  2
__32
 70
   64
  3
                                
 72
   65
 73
    0
 40
0
  0
ENDTAB
  0
TABLE
  2
STYLE
  5
3
100
AcDbSymbolTable
 70
     1
  0
STYLE
  5
10
100
AcDbSymbolTableRecord
100
AcDbTextStyleTableRecord
  2
STANDARD
 70
     0
 40
0.0
 41
1.0
 50
0.0
 71
     0
 42
0.2
  3
txt
  4
bigfont.shx
  0
STYLE
  5
26
100
AcDbSymbolTableRecord
100
AcDbTextStyleTableRecord
  2
TATEGAKI
 70
    68
 40
0.0
 41
1.0
 50
0.0
 71
     0
 42
1.0
  3
txt
  4
bigfont.shx
  0
ENDTAB
  0
TABLE
  2
LAYER
 70
    2
  0
LAYER
  2
_0-0_
 70
   64
 62
    7
  6
CONTINUOUS
  0
LAYER
  2
ADD_LINE
 70
   64
 62
    7
  6
CONTINUOUS
  0
ENDTAB
  0
ENDSEC
  0
SECTION
  2
BLOCKS
  0
BLOCK
  2
-000-1
 70
   64
 10
0
 20
0
 30
0
  0
LINE
  8
_0-0_
  6
CONTINUOUS
 62
    7
 10
-8.8194235640476482
 20
-17.702837243606812
 11
-10.076962442560651
 21
-17.466661362322018
  0
LINE
  8
_0-0_
  6
CONTINUOUS
 62
    7
 10
-5.1997222378828178
 20
18.404320595761245
 11
-5.249869732458941
 21
17.601960682543105
  0
LINE
  8
_0-0_
  6
CONTINUOUS
 62
    7
 10
-5.1997222378827894
 20
18.404320595761217
 11
-5.1079444955457598
 21
18.808400305774992
  0
LINE
  8
_0-0_
  6
CONTINUOUS
 62
    7
 10
-5.1079444955457598
 20
18.808400305774992
 11
-4.8608708503582614
 21
19.195250212971953
  0
LINE
  8
_0-0_
  6
CONTINUOUS
 62
    7
 10
-4.8608708503582614
 20
19.195250212971953
 11
-4.466008510004067
 21
19.553116078677416
  0
LINE
  8
_0-0_
  6
CONTINUOUS
 62
    7
 10
-4.466008510004067
 20
19.553116078677416
 11
-3.9353551668848263
 21
19.871124329650851
  0
LINE
  8
_0-0_
  6
CONTINUOUS
 62
    7
 10
-3.9353551668848263
 20
19.871124329650851
 11
-3.2850344543076995
 21
20.139612446106295
  0
LINE
  8
_0-0_
  6
CONTINUOUS
 62
    7
 10
-3.2850344543076995
 20
20.139612446106295
 11
-2.5348060380461641
 21
20.35042255248683
  0
LINE
  8
_0-0_
  6
CONTINUOUS
 62
    7
 10
-2.5348060380461641
 20
20.35042255248683
 11
-1.7074652288944574
 21
20.497149290385121
  0
LINE
  8
_0-0_
  6
CONTINUOUS
 62
    7
 10
-1.7074652288944574
 20
20.497149290385121
 11
-0.8281503586839644
 21
20.575334442117477
  0
LINE
  8
_0-0_
  6
CONTINUOUS
 62
    7
 10
-0.8281503586839644
 20
20.575334442117477
 11
0.076421035208759
 21
20.582602391412077
  0
LINE
  8
_0-0_
  6
CONTINUOUS
 62
    7
 10
0.076421035208759
 20
20.582602391412077
 11
0.9787640087154645
 21
20.518732305307363
  0
LINE
  8
_0-0_
  6
CONTINUOUS
 62
    7
 10
0.9787640087154645
 20
20.518732305307363
 11
1.8514613271937523
 21
20.385664844049838
  0
LINE
  8
_0-0_
  6
CONTINUOUS
 62
    7
 10
1.8514613271937523
 20
20.385664844049838
 11
2.6679965242277808
 21
20.18744319511438
  0
LINE
  8
_0-0_
  6
CONTINUOUS
 62
    7
 10
2.6679965242277808
 20
20.18744319511438
 11
3.4035595910424581
 21
19.930090222998924
  0
LINE
  8
_0-0_
  6
CONTINUOUS
 62
    7
 10
3.4035595910424581
 20
19.930090222998924
 11
4.0358008160654526
 21
19.621425467534319
  0
LINE
  8
_0-0_
  6
CONTINUOUS
 62
    7
 10
4.0358008160654526
 20
19.621425467534319
 11
4.5455098696039817
 21
19.270827551123457
  0
LINE
  8
_0-0_
  6
CONTINUOUS
 62
    7
 10
4.5455098696039817
 20
19.270827551123457
 11
4.9171994999914466
 21
18.888949214045336
  0
LINE
  8
_0-0_
  6
CONTINUOUS
 62
    7
 10
4.9171994999914466
 20
18.888949214045336
 11
5.1395761058926075
 21
18.487393636332339
  0
LINE
  8
_0-0_
  6
CONTINUOUS
 62
    7
 10
5.1395761058926075
 20
18.487393636332339
 11
5.2058828866651004
 21
18.078361881016374
  0
LINE
  8
_0-0_
  6
CONTINUOUS
 62
    7
 10
-24.606162463665079
 20
-11.661219317873165
 11
-24.230566075064026
 21
-9.9598491610645006
  0
LINE
  8
_0-0_
  6
CONTINUOUS
 62
    7
 10
-24.230566075064026
 20
-9.9598491610645006
 11
-23.121812151057192
 21
-8.311622854994031
  0
LINE
  8
_0-0_
  6
CONTINUOUS
 62
    7
 10
-23.121812151057192
 20
-8.311622854994031
 11
-21.31358961856899
 21
-6.7666209219289222
  0
LINE
  8
_0-0_
  6
CONTINUOUS
 62
    7
 10
-21.31358961856899
 20
-6.7666209219289222
 11
-18.860840404244279
 21
-5.3717874637966823
  0
LINE
  8
_0-0_
  6
CONTINUOUS
 62
    7
 10
-18.860840404244279
 20
-5.3717874637966823
 11
-15.838090051809397
 21
-4.1695037894028566
  0
LINE
  8
_0-0_
  6
CONTINUOUS
 62
    7
 10
-15.838090051809397
 20
-4.1695037894028566
 11
-12.337183301137523
 21
-3.1963006798090308
  0
LINE
  8
_0-0_
  6
CONTINUOUS
 62
    7
 10
-12.337183301137523
 20
-3.1963006798090308
 11
-8.464493432303593
 21
-2.4817484190356569
  0
LINE
  8
_0-0_
  6
CONTINUOUS
 62
    7
 10
-8.464493432303593
 20
-2.4817484190356569
 11
-4.3376901672964232
 21
-2.0475583159454405
  0
LINE
  8
_0-0_
  6
CONTINUOUS
 62
    7
 10
-4.3376901672964232
 20
-2.0475583159454405
 11
-0.0821643350601075
 21
-1.9069230171100064
  0
LINE
  8
_0-0_
  6
CONTINUOUS
 62
    7
 10
-0.0821643350601075
 20
-1.9069230171100064
 11
4.1727820653928438
 21
-2.0641156549195503
  0
LINE
  8
_0-0_
  6
CONTINUOUS
 62
    7
 10
4.1727820653928438
 20
-2.0641156549195503
 11
8.2978646407914507
 21
-2.5143600106175543
  0
LINE
  8
_0-0_
  6
CONTINUOUS
 62
    7
 10
8.2978646407914507
 20
-2.5143600106175543
 11
12.167744844474717
 21
-3.2439756372907769
  0
LINE
  8
_0-0_
  6
CONTINUOUS
 62
    7
 10
12.167744844474717
 20
-3.2439756372907769
 11
15.664838324707622
 21
-4.2307935333260538
  0
LINE
  8
_0-0_
  6
CONTINUOUS
 62
    7
 10
15.664838324707622
 20
-4.2307935333260538
 11
18.682887665707931
 21
-5.4448297363063212
  0
LINE
  8
_0-0_
  6
CONTINUOUS
 62
    7
 10
18.682887665707931
 20
-5.4448297363063212
 11
21.130190965456045
 21
-6.8491963705359815
  0
LINE
  8
_0-0_
  6
CONTINUOUS
 62
    7
 10
21.130190965456045
 20
-6.8491963705359815
 11
22.932388151584341
 21
-8.4012224664777655
  0
LINE
  8
_0-0_
  6
CONTINUOUS
 62
    7
 10
22.932388151584341
 20
-8.4012224664777655
 11
24.034720374548037
 21
-10.053750496569595
  0
LINE
  8
_0-0_
  6
CONTINUOUS
 62
    7
 10
24.034720374548037
 20
-10.053750496569595
 11
24.403693827559458
 21
-11.756569232836643
  0
LINE
  8
_0-0_
  6
CONTINUOUS
 62
    7
 10
2.6282179461454325
 20
-6.6990645922425536
 11
0.4297316130555006
 21
-6.5862865037940743
  0
LINE
  8
_0-0_
  6
CONTINUOUS
 62
    7
 10
0.4297316130555006
 20
-6.5862865037940743
 11
-1.7843140465124148
 21
-6.6279270260668035
  0
LINE
  8
_0-0_
  6
CONTINUOUS
 62
    7
 10
-1.7843140465124148
 20
-6.6279270260668035
 11
-3.9466463755535495
 21
-6.8227209328626124
  0
LINE
  8
_0-0_
  6
CONTINUOUS
 62
    7
 10
-3.9466463755535495
 20
-6.8227209328626124
 11
-5.9915640004429145
 21
-7.1647495098939693
  0
LINE
  8
_0-0_
  6
CONTINUOUS
 62
    7
 10
-5.9915640004429145
 20
-7.1647495098939693
 11
-7.856933133926483
 21
-7.6436203919225854
  0
LINE
  8
_0-0_
  6
CONTINUOUS
 62
    7
 10
-7.856933133926483
 20
-7.6436203919225854
 11
-9.4860754788057395
 21
-8.2447833295183877
  0
LINE
  8
_0-0_
  6
CONTINUOUS
 62
    7
 10
-9.4860754788057395
 20
-8.2447833295183877
 11
-10.829490369317265
 21
-8.9499722910256629
  0
LINE
  8
_0-0_
  6
CONTINUOUS
 62
    7
 10
-10.829490369317265
 20
-8.9499722910256629
 11
-11.84635882381364
 21
-9.737760466691828
  0
LINE
  8
_0-0_
  6
CONTINUOUS
 62
    7
 10
-11.84635882381364
 20
-9.737760466691828
 11
-12.505783808865241
 21
-10.584211311439322
  0
LINE
  8
_0-0_
  6
CONTINUOUS
 62
    7
 10
-12.505783808865241
 20
-10.584211311439322
 11
-12.787729029986432
 21
-11.463605844675289
  0
LINE
  8
_0-0_
  6
CONTINUOUS
 62
    7
 10
-12.787729029986432
 20
-11.463605844675289
 11
-12.683627724304595
 21
-12.349224108502458
  0
LINE
  8
_0-0_
  6
CONTINUOUS
 62
    7
 10
-12.683627724304595
 20
-12.349224108502458
 11
-12.196642957315115
 21
-13.214157040118909
  0
LINE
  8
_0-0_
  6
CONTINUOUS
 62
    7
 10
-12.196642957315115
 20
-13.214157040118909
 11
-11.341571514736708
 21
-14.032124090074664
  0
LINE
  8
_0-0_
  6
CONTINUOUS
 62
    7
 10
-11.341571514736708
 20
-14.032124090074664
 11
-10.144394309665168
 21
-14.7782717434681
  0
LINE
  8
_0-0_
  6
CONTINUOUS
 62
    7
 10
-10.144394309665168
 20
-14.7782717434681
 11
-8.6414869656756341
 21
-15.429928681419785
  0
LINE
  8
_0-0_
  6
CONTINUOUS
 62
    7
 10
-8.6414869656756341
 20
-15.429928681419785
 11
-6.8785145619074877
 21
-15.967294637624395
  0
LINE
  8
_0-0_
  6
CONTINUOUS
 62
    7
 10
-6.8785145619074877
 20
-15.967294637624395
 11
-4.909044122742082
 21
-16.374042019422948
  0
LINE
  8
_0-0_
  6
CONTINUOUS
 62
    7
 10
-4.909044122742082
 20
-16.374042019422948
 11
-2.7929170108733468
 21
-16.637812013443597
  0
LINE
  8
_0-0_
  6
CONTINUOUS
 62
    7
 10
-2.7929170108733468
 20
-16.637812013443597
 11
-0.5944306777834154
 21
-16.750590101892076
  0
LINE
  8
_0-0_
  6
CONTINUOUS
 62
    7
 10
-0.5944306777834154
 20
-16.750590101892076
 11
1.6196149817845
 21
-16.708949579619347
  0
LINE
  8
_0-0_
  6
CONTINUOUS
 62
    7
 10
1.6196149817845
 20
-16.708949579619347
 11
3.7819473108256352
 21
-16.514155672823538
  0
LINE
  8
_0-0_
  6
CONTINUOUS
 62
    7
 10
3.7819473108256352
 20
-16.514155672823538
 11
5.8268649357150002
 21
-16.172127095792195
  0
LINE
  8
_0-0_
  6
CONTINUOUS
 62
    7
 10
5.8268649357150002
 20
-16.172127095792195
 11
7.6922340691985971
 21
-15.693256213763565
  0
LINE
  8
_0-0_
  6
CONTINUOUS
 62
    7
 10
7.6922340691985971
 20
-15.693256213763565
 11
9.3213764140778235
 21
-15.092093276167763
  0
LINE
  8
_0-0_
  6
CONTINUOUS
 62
    7
 10
9.3213764140778235
 20
-15.092093276167763
 11
10.664791304589377
 21
-14.386904314660502
  0
LINE
  8
_0-0_
  6
CONTINUOUS
 62
    7
 10
10.664791304589377
 20
-14.386904314660502
 11
11.681659759085752
 21
-13.599116138994336
  0
LINE
  8
_0-0_
  6
CONTINUOUS
 62
    7
 10
11.681659759085752
 20
-13.599116138994336
 11
12.341084744137353
 21
-12.752665294246842
  0
LINE
  8
_0-0_
  6
CONTINUOUS
 62
    7
 10
12.341084744137353
 20
-12.752665294246842
 11
12.623029965258544
 21
-11.873270761010875
  0
LINE
  8
_0-0_
  6
CONTINUOUS
 62
    7
 10
12.623029965258544
 20
-11.873270761010875
 11
12.518928659576735
 21
-10.987652497183706
  0
LINE
  8
_0-0_
  6
CONTINUOUS
 62
    7
 10
12.518928659576735
 20
-10.987652497183706
 11
12.031943892587227
 21
-10.122719565567255
  0
LINE
  8
_0-0_
  6
CONTINUOUS
 62
    7
 10
12.031943892587227
 20
-10.122719565567255
 11
11.176872450008849
 21
-9.3047525156115007
  0
LINE
  8
_0-0_
  6
CONTINUOUS
 62
    7
 10
11.176872450008849
 20
-9.3047525156115007
 11
9.9796952449373091
 21
-8.5586048622180648
  0
LINE
  8
_0-0_
  6
CONTINUOUS
 62
    7
 10
9.9796952449373091
 20
-8.5586048622180648
 11
8.4767879009478033
 21
-7.9069479242663796
  0
LINE
  8
_0-0_
  6
CONTINUOUS
 62
    7
 10
8.4767879009478033
 20
-7.9069479242663796
 11
6.7138154971796302
 21
-7.3695819680617554
  0
LINE
  8
_0-0_
  6
CONTINUOUS
 62
    7
 10
6.7138154971796302
 20
-7.3695819680617554
 11
4.7443450580142246
 21
-6.9628345862632024
  0
LINE
  8
_0-0_
  6
CONTINUOUS
 62
    7
 10
4.7443450580142246
 20
-6.9628345862632024
 11
2.6282179461454893
 21
-6.6990645922425536
  0
LINE
  8
_0-0_
  6
CONTINUOUS
 62
    7
 10
10.308159135255343
 20
-12.2492741910951
 11
10.036275145722234
 21
-11.522513470171507
  0
LINE
  8
_0-0_
  6
CONTINUOUS
 62
    7
 10
10.036275145722234
 20
-11.522513470171507
 11
9.4530199979394549
 21
-10.825678741348899
  0
LINE
  8
_0-0_
  6
CONTINUOUS
 62
    7
 10
9.4530199979394549
 20
-10.825678741348899
 11
8.5761156044309725
 21
-10.179942975247176
  0
LINE
  8
_0-0_
  6
CONTINUOUS
 62
    7
 10
8.5761156044309725
 20
-10.179942975247176
 11
7.4322062614585525
 21
-9.6049265263612718
  0
LINE
  8
_0-0_
  6
CONTINUOUS
 62
    7
 10
7.4322062614585525
 20
-9.6049265263612718
 11
6.0560490755623482
 21
-9.1181009785182177
  0
LINE
  8
_0-0_
  6
CONTINUOUS
 62
    7
 10
6.0560490755623482
 20
-9.1181009785182177
 11
4.4894578864666732
 21
-8.7342582796436155
  0
LINE
  8
_0-0_
  6
CONTINUOUS
 62
    7
 10
4.4894578864666732
 20
-8.7342582796436155
 11
2.7800327747188112
 21
-8.4650612959089848
  0
LINE
  8
_0-0_
  6
CONTINUOUS
 62
    7
 10
2.7800327747188112
 20
-8.4650612959089848
 11
0.9797137573283609
 21
-8.3186894414448638
  0
LINE
  8
_0-0_
  6
CONTINUOUS
 62
    7
 10
0.9797137573283609
 20
-8.3186894414448638
 11
-0.8567973833666056
 21
-8.2995901509814196
  0
LINE
  8
_0-0_
  6
CONTINUOUS
 62
    7
 10
-0.8567973833666056
 20
-8.2995901509814196
 11
-2.6736991856755958
 21
-8.4083437467946602
  0
LINE
  8
_0-0_
  6
CONTINUOUS
 62
    7
 10
-2.6736991856755958
 20
-8.4083437467946602
 11
-4.4157860077321027
 21
-8.6416458059077748
  0
LINE
  8
_0-0_
  6
CONTINUOUS
 62
    7
 10
-4.4157860077321027
 20
-8.6416458059077748
 11
-6.0301254229864094
 21
-8.9924075633111649
  0
LINE
  8
_0-0_
  6
CONTINUOUS
 62
    7
 10
-6.0301254229864094
 20
-8.9924075633111649
 11
-7.4676665452011628
 21
-9.4499713005001276
  0
LINE
  8
_0-0_
  6
CONTINUOUS
 62
    7
 10
-7.4676665452011628
 20
-9.4499713005001276
 11
-8.684730414808806
 21
-10.000434174858615
  0
LINE
  8
_0-0_
  6
CONTINUOUS
 62
    7
 10
-8.684730414808806
 20
-10.000434174858615
 11
-9.6443371619953187
 21
-10.627070650496879
  0
LINE
  8
_0-0_
  6
CONTINUOUS
 62
    7
 10
-9.6443371619953187
 20
-10.627070650496879
 11
-10.317329621331888
 21
-11.310840695196024
  0
LINE
  8
_0-0_
  6
CONTINUOUS
 62
    7
 10
-10.317329621331888
 20
-11.310840695196024
 11
-10.683259257492191
 21
-12.030968302152207
  0
LINE
  8
_0-0_
  6
CONTINUOUS
 62
    7
 10
-10.683259257492191
 20
-12.030968302152207
 11
-10.731007483650822
 21
-12.765572758430199
  0
LINE
  8
_0-0_
  6
CONTINUOUS
 62
    7
 10
-10.731007483650822
 20
-12.765572758430199
 11
-10.459123494117714
 21
-13.492333479353793
  0
LINE
  8
_0-0_
  6
CONTINUOUS
 62
    7
 10
-10.459123494117714
 20
-13.492333479353793
 11
-9.8758683463349346
 21
-14.189168208176387
  0
LINE
  8
_0-0_
  6
CONTINUOUS
 62
    7
 10
-9.8758683463349346
 20
-14.189168208176387
 11
-8.9989639528264522
 21
-14.834903974278109
  0
LINE
  8
_0-0_
  6
CONTINUOUS
 62
    7
 10
-8.9989639528264522
 20
-14.834903974278109
 11
-7.8550546098540304
 21
-15.409920423164014
  0
LINE
  8
_0-0_
  6
CONTINUOUS
 62
    7
 10
-7.8550546098540304
 20
-15.409920423164014
 11
-6.4788974239578261
 21
-15.896745971007068
  0
LINE
  8
_0-0_
  6
CONTINUOUS
 62
    7
 10
-6.4788974239578261
 20
-15.896745971007068
 11
-4.9123062348621795
 21
-16.280588669881684
  0
LINE
  8
_0-0_
  6
CONTINUOUS
 62
    7
 10
-4.9123062348621795
 20
-16.280588669881684
 11
-3.2028811231143175
 21
-16.549785653616315
  0
LINE
  8
_0-0_
  6
CONTINUOUS
 62
    7
 10
-3.2028811231143175
 20
-16.549785653616315
 11
-1.4025621057238677
 21
-16.696157508080436
  0
LINE
  8
_0-0_
  6
CONTINUOUS
 62
    7
 10
-1.4025621057238677
 20
-16.696157508080436
 11
0.4339490349710988
 21
-16.71525679854388
  0
LINE
  8
_0-0_
  6
CONTINUOUS
 62
    7
 10
0.4339490349710988
 20
-16.71525679854388
 11
2.2508508372800895
 21
-16.606503202730654
  0
LINE
  8
_0-0_
  6
CONTINUOUS
 62
    7
 10
2.2508508372800895
 20
-16.606503202730654
 11
3.9929376593365964
 21
-16.373201143617525
  0
LINE
  8
_0-0_
  6
CONTINUOUS
 62
    7
 10
3.9929376593365964
 20
-16.373201143617525
 11
5.6072770745909031
 21
-16.022439386214149
  0
LINE
  8
_0-0_
  6
CONTINUOUS
 62
    7
 10
5.6072770745909031
 20
-16.022439386214149
 11
7.0448181968056849
 21
-15.564875649025172
  0
LINE
  8
_0-0_
  6
CONTINUOUS
 62
    7
 10
7.0448181968056849
 20
-15.564875649025172
 11
8.2618820664132979
 21
-15.014412774666699
  0
LINE
  8
_0-0_
  6
CONTINUOUS
 62
    7
 10
8.2618820664132979
 20
-15.014412774666699
 11
9.2214888135998105
 21
-14.387776299028435
  0
LINE
  8
_0-0_
  6
CONTINUOUS
 62
    7
 10
9.2214888135998105
 20
-14.387776299028435
 11
9.8944812729364084
 21
-13.70400625432929
  0
LINE
  8
_0-0_
  6
CONTINUOUS
 62
    7
 10
9.8944812729364084
 20
-13.70400625432929
 11
10.260410909096711
 21
-12.983878647373107
  0
LINE
  8
_0-0_
  6
CONTINUOUS
 62
    7
 10
10.260410909096711
 20
-12.983878647373107
 11
10.308159135255343
 21
-12.249274191095115
  0
LINE
  8
_0-0_
  6
CONTINUOUS
 62
    7
 10
8.113363388808315
 20
-12.258757226005333
 11
7.8958561971818346
 21
-11.677348649266452
  0
LINE
  8
_0-0_
  6
CONTINUOUS
 62
    7
 10
7.8958561971818346
 20
-11.677348649266452
 11
7.4292520789556056
 21
-11.119880866208366
  0
LINE
  8
_0-0_
  6
CONTINUOUS
 62
    7
 10
7.4292520789556056
 20
-11.119880866208366
 11
6.7277285641488254
 21
-10.603292253326988
  0
LINE
  8
_0-0_
  6
CONTINUOUS
 62
    7
 10
6.7277285641488254
 20
-10.603292253326988
 11
5.8126010897709
 21
-10.143279094218276
  0
LINE
  8
_0-0_
  6
CONTINUOUS
 62
    7
 10
5.8126010897709
 20
-10.143279094218276
 11
4.7116753410539252
 21
-9.7538186559438209
  0
LINE
  8
_0-0_
  6
CONTINUOUS
 62
    7
 10
4.7116753410539252
 20
-9.7538186559438209
 11
3.4584023897773966
 21
-9.4467444968441363
  0
LINE
  8
_0-0_
  6
CONTINUOUS
 62
    7
 10
3.4584023897773966
 20
-9.4467444968441363
 11
2.0908623003791069
 21
-9.2313869098564432
  0
LINE
  8
_0-0_
  6
CONTINUOUS
 62
    7
 10
2.0908623003791069
 20
-9.2313869098564432
 11
0.650607086466741
 21
-9.1142894262851435
  0
LINE
  8
_0-0_
  6
CONTINUOUS
 62
    7
 10
0.650607086466741
 20
-9.1142894262851435
 11
-0.8186018260892435
 21
-9.0990099939143825
  0
LINE
  8
_0-0_
  6
CONTINUOUS
 62
    7
 10
-0.8186018260892435
 20
-9.0990099939143825
 11
-2.27212326793643
 21
-9.1860128705649693
  0
LINE
  8
_0-0_
  6
CONTINUOUS
 62
    7
 10
-2.27212326793643
 20
-9.1860128705649693
 11
-3.6657927255816469
 21
-9.3726545178554694
  0
LINE
  8
_0-0_
  6
CONTINUOUS
 62
    7
 10
-3.6657927255816469
 20
-9.3726545178554694
 11
-4.9572642577850923
 21
-9.6532639237781872
  0
LINE
  8
_0-0_
  6
CONTINUOUS
 62
    7
 10
-4.9572642577850923
 20
-9.6532639237781872
 11
-6.1072971555569007
 21
-10.01931491352936
  0
LINE
  8
_0-0_
  6
CONTINUOUS
 62
    7
 10
-6.1072971555569007
 20
-10.01931491352936
 11
-7.0809482512430089
 21
-10.459685213016147
  0
LINE
  8
_0-0_
  6
CONTINUOUS
 62
    7
 10
-7.0809482512430089
 20
-10.459685213016147
 11
-7.8486336489922133
 21
-10.96099439352675
  0
LINE
  8
_0-0_
  6
CONTINUOUS
 62
    7
 10
-7.8486336489922133
 20
-10.96099439352675
 11
-8.387027616461447
 21
-11.508010429286077
  0
LINE
  8
_0-0_
  6
CONTINUOUS
 62
    7
 10
-8.387027616461447
 20
-11.508010429286077
 11
-8.6797713253896891
 21
-12.084112514851018
  0
LINE
  8
_0-0_
  6
CONTINUOUS
 62
    7
 10
-8.6797713253896891
 20
-12.084112514851018
 11
-8.7179699063166058
 21
-12.671796079873406
  0
LINE
  8
_0-0_
  6
CONTINUOUS
 62
    7
 10
-8.7179699063166058
 20
-12.671796079873406
 11
-8.5004627146901246
 21
-13.253204656612287
  0
LINE
  8
_0-0_
  6
CONTINUOUS
 62
    7
 10
-8.5004627146901246
 20
-13.253204656612287
 11
-8.0338585964638956
 21
-13.810672439670359
  0
LINE
  8
_0-0_
  6
CONTINUOUS
 62
    7
 10
-8.0338585964638956
 20
-13.810672439670359
 11
-7.3323350816571145
 21
-14.327261052551737
  0
LINE
  8
_0-0_
  6
CONTINUOUS
 62
    7
 10
-7.3323350816571145
 20
-14.327261052551737
 11
-6.417207607279189
 21
-14.787274211660463
  0
LINE
  8
_0-0_
  6
CONTINUOUS
 62
    7
 10
-6.417207607279189
 20
-14.787274211660463
 11
-5.3162818585622142
 21
-15.176734649934904
  0
LINE
  8
_0-0_
  6
CONTINUOUS
 62
    7
 10
-5.3162818585622142
 20
-15.176734649934904
 11
-4.0630089072856856
 21
-15.483808809034588
  0
LINE
  8
_0-0_
  6
CONTINUOUS
 62
    7
 10
-4.0630089072856856
 20
-15.483808809034588
 11
-2.695468817887396
 21
-15.699166396022296
  0
LINE
  8
_0-0_
  6
CONTINUOUS
 62
    7
 10
-2.695468817887396
 20
-15.699166396022296
 11
-1.255213603975059
 21
-15.816263879593595
  0
LINE
  8
_0-0_
  6
CONTINUOUS
 62
    7
 10
-1.255213603975059
 20
-15.816263879593595
 11
0.2139953085809256
 21
-15.831543311964356
  0
LINE
  8
_0-0_
  6
CONTINUOUS
 62
    7
 10
0.2139953085809256
 20
-15.831543311964356
 11
1.6675167504281123
 21
-15.74454043531377
  0
LINE
  8
_0-0_
  6
CONTINUOUS
 62
    7
 10
1.6675167504281123
 20
-15.74454043531377
 11
3.0611862080733294
 21
-15.55789878802327
  0
LINE
  8
_0-0_
  6
CONTINUOUS
 62
    7
 10
3.0611862080733294
 20
-15.55789878802327
 11
4.3526577402767748
 21
-15.277289382100566
  0
LINE
  8
_0-0_
  6
CONTINUOUS
 62
    7
 10
4.3526577402767748
 20
-15.277289382100566
 11
5.5026906380485832
 21
-14.911238392349393
  0
LINE
  8
_0-0_
  6
CONTINUOUS
 62
    7
 10
5.5026906380485832
 20
-14.911238392349393
 11
6.4763417337346914
 21
-14.470868092862606
  0
LINE
  8
_0-0_
  6
CONTINUOUS
 62
    7
 10
6.4763417337346914
 20
-14.470868092862606
 11
7.2440271314838958
 21
-13.969558912351989
  0
LINE
  8
_0-0_
  6
CONTINUOUS
 62
    7
 10
7.2440271314838958
 20
-13.969558912351989
 11
7.782421098953157
 21
-13.422542876592676
  0
LINE
  8
_0-0_
  6
CONTINUOUS
 62
    7
 10
7.782421098953157
 20
-13.422542876592676
 11
8.0751648078814267
 21
-12.846440791027735
  0
LINE
  8
_0-0_
  6
CONTINUOUS
 62
    7
 10
8.0751648078814267
 20
-12.846440791027735
 11
8.113363388808315
 21
-12.258757226005347
  0
LINE
  8
_0-0_
  6
CONTINUOUS
 62
    7
 10
24.403693827559458
 20
-11.756569232836657
 11
24.028511372432767
 21
-13.245177583828085
  0
LINE
  8
_0-0_
  6
CONTINUOUS
 62
    7
 10
24.028511372432767
 20
-13.245177583828085
 11
22.920158804741128
 21
-14.687106743888425
  0
LINE
  8
_0-0_
  6
CONTINUOUS
 62
    7
 10
22.920158804741128
 20
-14.687106743888425
 11
21.112312856400415
 21
-16.038544425140589
  0
LINE
  8
_0-0_
  6
CONTINUOUS
 62
    7
 10
21.112312856400415
 20
-16.038544425140589
 11
18.659904011736749
 21
-17.258427877500214
  0
LINE
  8
_0-0_
  6
CONTINUOUS
 62
    7
 10
18.659904011736749
 20
-17.258427877500214
 11
15.637447472516518
 21
-18.30969155955815
  0
LINE
  8
_0-0_
  6
CONTINUOUS
 62
    7
 10
15.637447472516518
 20
-18.30969155955815
 11
12.13677905124708
 21
-19.160393356300165
  0
LINE
  8
_0-0_
  6
CONTINUOUS
 62
    7
 10
12.13677905124708
 20
-19.160393356300165
 11
8.2642647864850485
 21
-19.784685124108126
  0
LINE
  8
_0-0_
  6
CONTINUOUS
 62
    7
 10
8.2642647864850485
 20
-19.784685124108126
 11
4.1375690645784493
 21
-20.163598073524074
  0
LINE
  8
_0-0_
  6
CONTINUOUS
 62
    7
 10
4.1375690645784493
 20
-20.163598073524074
 11
-0.1179205531714242
 21
-20.285619126319208
  0
LINE
  8
_0-0_
  6
CONTINUOUS
 62
    7
 10
-0.1179205531714242
 20
-20.285619126319208
 11
-4.3729031681108461
 21
-20.147040734549964
  0
LINE
  8
_0-0_
  6
CONTINUOUS
 62
    7
 10
-4.3729031681108461
 20
-20.147040734549964
 11
-8.4980932866099952
 21
-19.752073532526229
  0
LINE
  8
_0-0_
  6
CONTINUOUS
 62
    7
 10
-8.4980932866099952
 20
-19.752073532526229
 11
-12.36814909436516
 21
-19.112718398818419
  0
LINE
  8
_0-0_
  6
CONTINUOUS
 62
    7
 10
-12.36814909436516
 20
-19.112718398818419
 11
-15.865480904000501
 21
-18.248401815634953
  0
LINE
  8
_0-0_
  6
CONTINUOUS
 62
    7
 10
-15.865480904000501
 20
-18.248401815634953
 11
-18.883824058215488
 21
-17.185385604990575
  0
LINE
  8
_0-0_
  6
CONTINUOUS
 62
    7
 10
-18.883824058215488
 20
-17.185385604990575
 11
-21.33146772762462
 21
-15.95596897653353
  0
LINE
  8
_0-0_
  6
CONTINUOUS
 62
    7
 10
-21.33146772762462
 20
-15.95596897653353
 11
-23.134041497900405
 21
-14.597507132404676
  0
LINE
  8
_0-0_
  6
CONTINUOUS
 62
    7
 10
-23.134041497900405
 20
-14.597507132404676
 11
-24.236775077179296
 21
-13.15127624832299
  0
LINE
  8
_0-0_
  6
CONTINUOUS
 62
    7
 10
-24.236775077179296
 20
-13.15127624832299
 11
-24.606162463665079
 21
-11.661219317873179
  0
LINE
  8
_0-0_
  6
CONTINUOUS
 62
    7
 10
24.35601887007774
 20
-11.899594105281853
 11
23.976852258334922
 21
-13.385667254519252
  0
LINE
  8
_0-0_
  6
CONTINUOUS
 62
    7
 10
23.976852258334922
 20
-13.385667254519252
 11
22.86536088033909
 21
-14.822965374460399
  0
LINE
  8
_0-0_
  6
CONTINUOUS
 62
    7
 10
22.86536088033909
 20
-14.822965374460399
 11
21.055316839168846
 21
-16.167816889038821
  0
LINE
  8
_0-0_
  6
CONTINUOUS
 62
    7
 10
21.055316839168846
 20
-16.167816889038821
 11
18.601717407088664
 21
-17.379359165511762
  0
LINE
  8
_0-0_
  6
CONTINUOUS
 62
    7
 10
18.601717407088664
 20
-17.379359165511762
 11
15.579113961261092
 21
-18.420780104878535
  0
LINE
  8
_0-0_
  6
CONTINUOUS
 62
    7
 10
15.579113961261092
 20
-18.420780104878535
 11
12.079346777876443
 21
-19.260436658880938
  0
LINE
  8
_0-0_
  6
CONTINUOUS
 62
    7
 10
12.079346777876443
 20
-19.260436658880938
 11
8.2087545118342486
 21
-19.87281628801232
  0
LINE
  8
_0-0_
  6
CONTINUOUS
 62
    7
 10
8.2087545118342486
 20
-19.87281628801232
 11
4.0849431505239613
 21
-20.239312147120561
  0
LINE
  8
_0-0_
  6
CONTINUOUS
 62
    7
 10
4.0849431505239613
 20
-20.239312147120561
 11
-0.1667873845901877
 21
-20.348788444982493
  0
LINE
  8
_0-0_
  6
CONTINUOUS
 62
    7
 10
-0.1667873845901877
 20
-20.348788444982493
 11
-4.4172504126782508
 21
-20.197918799685286
  0
LINE
  8
_0-0_
  6
CONTINUOUS
 62
    7
 10
-4.4172504126782508
 20
-20.197918799685286
 11
-8.5372977654698534
 21
-19.791287309057569
  0
LINE
  8
_0-0_
  6
CONTINUOUS
 62
    7
 10
-8.5372977654698534
 20
-19.791287309057569
 11
-12.401743888994966
 21
-19.141249265176601
  0
LINE
  8
_0-0_
  6
CONTINUOUS
 62
    7
 10
-12.401743888994966
 20
-19.141249265176601
 11
-15.893169543294343
 21
-18.26755574507057
  0
LINE
  8
_0-0_
  6
CONTINUOUS
 62
    7
 10
-15.893169543294343
 20
-18.26755574507057
 11
-18.905489526608768
 21
-17.19675348423765
  0
LINE
  8
_0-0_
  6
CONTINUOUS
 62
    7
 10
-18.905489526608768
 20
-17.19675348423765
 11
-21.347176020552673
 21
-15.961378267521187
  0
LINE
  8
_0-0_
  6
CONTINUOUS
 62
    7
 10
-21.347176020552673
 20
-15.961378267521187
 11
-23.144039616560583
 21
-14.598966345751041
  0
LINE
  8
_0-0_
  6
CONTINUOUS
 62
    7
 10
-23.144039616560583
 20
-14.598966345751041
 11
-24.241483523524614
 21
-13.150913915756536
  0
LINE
  8
_0-0_
  6
CONTINUOUS
 62
    7
 10
-24.241483523524614
 20
-13.150913915756536
 11
-24.606162463665079
 21
-11.661219317873165
  0
LINE
  8
_0-0_
  6
CONTINUOUS
 62
    7
 10
22.35367065584483
 20
-12.137968892690527
 11
22.012892525960432
 21
-13.507416003976321
  0
LINE
  8
_0-0_
  6
CONTINUOUS
 62
    7
 10
22.012892525960432
 20
-13.507416003976321
 11
20.998014973021206
 21
-14.835977447488563
  0
LINE
  8
_0-0_
  6
CONTINUOUS
 62
    7
 10
20.998014973021206
 20
-14.835977447488563
 11
19.339874537920444
 21
-16.083285556050672
  0
LINE
  8
_0-0_
  6
CONTINUOUS
 62
    7
 10
19.339874537920444
 20
-16.083285556050672
 11
17.088852978719068
 21
-17.211441503952333
  0
LINE
  8
_0-0_
  6
CONTINUOUS
 62
    7
 10
17.088852978719068
 20
-17.211441503952333
 11
14.313346446421624
 21
-18.186166843591014
  0
LINE
  8
_0-0_
  6
CONTINUOUS
 62
    7
 10
14.313346446421624
 20
-18.186166843591014
 11
11.097687302537841
 21
-18.977845038756616
  0
LINE
  8
_0-0_
  6
CONTINUOUS
 62
    7
 10
11.097687302537841
 20
-18.977845038756616
 11
7.5395817229525823
 21
-19.562421348097534
  0
LINE
  8
_0-0_
  6
CONTINUOUS
 62
    7
 10
7.5395817229525823
 20
-19.562421348097534
 11
3.7471409452132809
 21
-19.922133716264316
  0
LINE
  8
_0-0_
  6
CONTINUOUS
 62
    7
 10
3.7471409452132809
 20
-19.922133716264316
 11
-0.1644036367160961
 21
-20.04605246497346
  0
LINE
  8
_0-0_
  6
CONTINUOUS
 62
    7
 10
-0.1644036367160961
 20
-20.04605246497346
 11
-4.0762017200506842
 21
-19.930412385751357
  0
LINE
  8
_0-0_
  6
CONTINUOUS
 62
    7
 10
-4.0762017200506842
 20
-19.930412385751357
 11
-7.8693952994937115
 21
-19.578727143888475
  0
LINE
  8
_0-0_
  6
CONTINUOUS
 62
    7
 10
-7.8693952994937115
 20
-19.578727143888475
 11
-11.428730107582377
 21
-19.001682517497475
  0
LINE
  8
_0-0_
  6
CONTINUOUS
 62
    7
 10
-11.428730107582377
 20
-19.001682517497475
 11
-14.646057557283209
 21
-18.216811715552598
  0
LINE
  8
_0-0_
  6
CONTINUOUS
 62
    7
 10
-14.646057557283209
 20
-18.216811715552598
 11
-17.423620782083283
 21
-17.247962640207138
  0
LINE
  8
_0-0_
  6
CONTINUOUS
 62
    7
 10
-17.423620782083283
 20
-17.247962640207138
 11
-19.677024928911898
 21
-16.124573280354188
  0
LINE
  8
_0-0_
  6
CONTINUOUS
 62
    7
 10
-19.677024928911898
 20
-16.124573280354188
 11
-21.337801453045138
 21
-14.880777253230423
  0
LINE
  8
_0-0_
  6
CONTINUOUS
 62
    7
 10
-21.337801453045138
 20
-14.880777253230423
 11
-22.355488500190724
 21
-13.554366671728847
  0
LINE
  8
_0-0_
  6
CONTINUOUS
 62
    7
 10
-22.355488500190724
 20
-13.554366671728847
 11
-22.699164164395604
 21
-12.185643850172259
  0
LINE
  8
_0-0_
  6
CONTINUOUS
 62
    7
 10
-22.699164164395604
 20
-12.185643850172244
 11
-22.358510214553498
 21
-10.698846598907483
  0
LINE
  8
_0-0_
  6
CONTINUOUS
 62
    7
 10
-22.358510214553498
 20
-10.698846598907483
 11
-21.343753068508853
 21
-9.2565006400375047
  0
LINE
  8
_0-0_
  6
CONTINUOUS
 62
    7
 10
-21.343753068508853
 20
-9.2565006400375047
 11
-19.685725608652326
 21
-7.9024309256603011
  0
LINE
  8
_0-0_
  6
CONTINUOUS
 62
    7
 10
-19.685725608652326
 20
-7.9024309256603011
 11
-17.434806160349275
 21
-6.6777801788548636
  0
LINE
  8
_0-0_
  6
CONTINUOUS
 62
    7
 10
-17.434806160349275
 20
-6.6777801788548636
 11
-14.659387772016212
 21
-5.6197587928597166
  0
LINE
  8
_0-0_
  6
CONTINUOUS
 62
    7
 10
-14.659387772016212
 20
-5.6197587928597166
 11
-11.443800126953173
 21
-4.7605142121036614
  0
LINE
  8
_0-0_
  6
CONTINUOUS
 62
    7
 10
-11.443800126953173
 20
-4.7605142121036614
 11
-7.8857472285894881
 21
-4.1261541483742441
  0
LINE
  8
_0-0_
  6
CONTINUOUS
 62
    7
 10
-7.8857472285894881
 20
-4.1261541483742441
 11
-4.093338713780363
 21
-3.7359533112061913
  0
LINE
  8
_0-0_
  6
CONTINUOUS
 62
    7
 10
-4.093338713780363
 20
-3.7359533112061913
 11
-0.1818049961969248
 21
-3.6017677555857008
  0
LINE
  8
_0-0_
  6
CONTINUOUS
 62
    7
 10
-0.1818049961969248
 20
-3.6017677555857008
 11
3.7300039514836305
 21
-3.7276746417191364
  0
LINE
  8
_0-0_
  6
CONTINUOUS
 62
    7
 10
3.7300039514836305
 20
-3.7276746417191364
 11
7.5232297938568058
 21
-4.1098483525833025
  0
LINE
  8
_0-0_
  6
CONTINUOUS
 62
    7
 10
7.5232297938568058
 20
-4.1098483525833025
 11
11.082617283167044
 21
-4.7366767333628168
  0
LINE
  8
_0-0_
  6
CONTINUOUS
 62
    7
 10
11.082617283167044
 20
-4.7366767333628168
 11
14.300016231688621
 21
-5.5891139208981464
  0
LINE
  8
_0-0_
  6
CONTINUOUS
 62
    7
 10
14.300016231688621
 20
-5.5891139208981464
 11
17.077667600453104
 21
-6.6412590426000584
  0
LINE
  8
_0-0_
  6
CONTINUOUS
 62
    7
 10
17.077667600453104
 20
-6.6412590426000584
 11
19.331173858180016
 21
-7.8611432013567857
  0
LINE
  8
_0-0_
  6
CONTINUOUS
 62
    7
 10
19.331173858180016
 20
-7.8611432013567857
 11
20.99206335755752
 21
-9.2117008342956588
  0
LINE
  8
_0-0_
  6
CONTINUOUS
 62
    7
 10
20.99206335755752
 20
-9.2117008342956588
 11
22.009870811597629
 21
-10.651895931154957
  0
LINE
  8
_0-0_
  6
CONTINUOUS
 62
    7
 10
22.009870811597629
 20
-10.651895931154957
 11
22.35367065584483
 21
-12.137968892690512
  0
LINE
  8
_0-0_
  6
CONTINUOUS
 62
    7
 10
-21.030540652534889
 20
-10.850745040683652
 11
-20.69276006785541
 21
-9.5582474114726246
  0
LINE
  8
_0-0_
  6
CONTINUOUS
 62
    7
 10
-20.69276006785541
 20
-9.5582474114726246
 11
-19.734386421187345
 21
-8.315886014627754
  0
LINE
  8
_0-0_
  6
CONTINUOUS
 62
    7
 10
-19.734386421187345
 20
-8.315886014627754
 11
-18.18453941082425
 21
-7.1614093725269505
  0
LINE
  8
_0-0_
  6
CONTINUOUS
 62
    7
 10
-18.18453941082425
 20
-7.1614093725269505
 11
-16.090310353915534
 21
-6.1298956737470753
  0
LINE
  8
_0-0_
  6
CONTINUOUS
 62
    7
 10
-16.090310353915534
 20
-6.1298956737470753
 11
-13.515331340624394
 21
-5.2526869400544633
  0
LINE
  8
_0-0_
  6
CONTINUOUS
 62
    7
 10
-13.515331340624394
 20
-5.2526869400544633
 11
-10.537841805267371
 21
-4.5564367149333158
  0
LINE
  8
_0-0_
  6
CONTINUOUS
 62
    7
 10
-10.537841805267371
 20
-4.5564367149333158
 11
-7.248311260693904
 21
-4.062300209154305
  0
LINE
  8
_0-0_
  6
CONTINUOUS
 62
    7
 10
-7.248311260693904
 20
-4.062300209154305
 11
-3.7466904279180904
 21
-3.7852915104004157
  0
LINE
  8
_0-0_
  6
CONTINUOUS
 62
    7
 10
-3.7466904279180904
 20
-3.7852915104004157
 11
-0.1393742840381915
 21
-3.7338273878101123
  0
LINE
  8
_0-0_
  6
CONTINUOUS
 62
    7
 10
-0.1393742840381915
 20
-3.7338273878101123
 11
3.4640306953040669
 21
-3.9094715527061967
  0
LINE
  8
_0-0_
  6
CONTINUOUS
 62
    7
 10
3.4640306953040669
 20
-3.9094715527061967
 11
6.9540368732222282
 21
-4.3068871460185427
  0
LINE
  8
_0-0_
  6
CONTINUOUS
 62
    7
 10
6.9540368732222282
 20
-4.3068871460185427
 11
10.224602178028638
 21
-4.9139988960463263
  0
LINE
  8
_0-0_
  6
CONTINUOUS
 62
    7
 10
10.224602178028638
 20
-4.9139988960463263
 11
13.176352137922626
 21
-5.712360019478357
  0
LINE
  8
_0-0_
  6
CONTINUOUS
 62
    7
 10
13.176352137922626
 20
-5.712360019478357
 11
15.719599324030375
 21
-6.6777127175693387
  0
LINE
  8
_0-0_
  6
CONTINUOUS
 62
    7
 10
15.719599324030375
 20
-6.6777127175693387
 11
17.77706845754718
 21
-7.7807252370798388
  0
LINE
  8
_0-0_
  6
CONTINUOUS
 62
    7
 10
17.77706845754718
 20
-7.7807252370798388
 11
19.286244379980722
 21
-8.9878831007557842
  0
LINE
  8
_0-0_
  6
CONTINUOUS
 62
    7
 10
19.286244379980722
 20
-8.9878831007557842
 11
20.201271544607742
 21
-10.262507427760742
  0
LINE
  8
_0-0_
  6
CONTINUOUS
 62
    7
 10
20.201271544607742
 20
-10.262507427760742
 11
20.49434731405713
 21
-11.565869402909687
  0
LINE
  8
_0-0_
  6
CONTINUOUS
 62
    7
 10
-24.217120639713762
 20
-10.959810362735826
 11
-23.145041420673842
 21
-11.565768182193171
  0
LINE
  8
_0-0_
  6
CONTINUOUS
 62
    7
 10
-23.145041420673842
 20
-11.565768182193171
 11
-22.67892002109128
 21
-11.627917702137513
  0
LINE
  8
_0-0_
  6
CONTINUOUS
 62
    7
 10
-24.341419679602446
 20
-11.721141982054025
 11
-23.315952600520781
 21
-12.233875521594857
  0
LINE
  8
_0-0_
  6
CONTINUOUS
 62
    7
 10
-23.315952600520781
 20
-12.233875521594857
 11
-22.756606921021707
 21
-12.218338141608772
  0
LINE
  8
_0-0_
  6
CONTINUOUS
 62
    7
 10
-20.068640183428819
 20
-6.2519842269517945
 11
-19.198546904208008
 21
-7.1842270261169467
  0
LINE
  8
_0-0_
  6
CONTINUOUS
 62
    7
 10
-19.198546904208008
 20
-7.1842270261169467
 11
-18.825649784541959
 21
-7.1842270261169467
  0
LINE
  8
_0-0_
  6
CONTINUOUS
 62
    7
 10
-18.794575024569788
 20
-5.5994142675361793
 11
-18.110930305182002
 21
-6.5316570667013316
  0
LINE
  8
_0-0_
  6
CONTINUOUS
 62
    7
 10
-18.110930305182002
 20
-6.5316570667013316
 11
-17.520509865710729
 21
-6.5627318266735024
  0
LINE
  8
_0-0_
  6
CONTINUOUS
 62
    7
 10
-6.9550914751723178
 20
-2.7094615901241954
 11
-6.7375681553671223
 21
-3.6106296293171769
  0
LINE
  8
_0-0_
  6
CONTINUOUS
 62
    7
 10
-6.7375681553671223
 20
-3.6106296293171769
 11
-6.6443438754506099
 21
-3.7970781891502159
  0
LINE
  8
_0-0_
  6
CONTINUOUS
 62
    7
 10
-6.6754186354227807
 20
-2.616237310207683
 11
-6.5511195955340975
 21
-3.4863305894284937
  0
LINE
  8
_0-0_
  6
CONTINUOUS
 62
    7
 10
-6.5511195955340975
 20
-3.4863305894284937
 11
-6.4268205556453859
 21
-3.7660034291780451
  0
LINE
  8
_0-0_
  6
CONTINUOUS
 62
    7
 10
-4.8109330370924761
 20
-2.3987139904024732
 11
-4.7177087571759353
 21
-3.3620315495398105
  0
LINE
  8
_0-0_
  6
CONTINUOUS
 62
    7
 10
-4.7177087571759353
 20
-3.3620315495398105
 11
-4.5001854373707397
 21
-3.6106296293171769
  0
LINE
  8
_0-0_
  6
CONTINUOUS
 62
    7
 10
-4.5312601973429105
 20
-2.4297887503746582
 11
-4.4691106773985689
 21
-3.1445082297346008
  0
LINE
  8
_0-0_
  6
CONTINUOUS
 62
    7
 10
-4.4691106773985689
 20
-3.1445082297346008
 11
-4.1894378376490318
 21
-3.4863305894284937
  0
LINE
  8
_0-0_
  6
CONTINUOUS
 62
    7
 10
9.5456060700509138
 20
-3.2377325096511131
 11
9.2970079902735474
 21
-4.0456762689275827
  0
LINE
  8
_0-0_
  6
CONTINUOUS
 62
    7
 10
9.1416341904126934
 20
-4.1699753088162659
 11
9.2970079902735474
 21
-4.0456762689275827
  0
LINE
  8
_0-0_
  6
CONTINUOUS
 62
    7
 10
9.359157510217889
 20
-4.2321248287606075
 11
9.4523817901344014
 21
-4.0767510288997535
  0
LINE
  8
_0-0_
  6
CONTINUOUS
 62
    7
 10
9.4523817901344014
 20
-4.0767510288997535
 11
9.7942041498282801
 21
-3.2377325096511131
  0
LINE
  8
_0-0_
  6
CONTINUOUS
 62
    7
 10
11.845138307991638
 20
-3.5795548693450061
 11
11.534390708269902
 21
-4.5739471884545004
  0
LINE
  8
_0-0_
  6
CONTINUOUS
 62
    7
 10
11.534390708269902
 20
-4.5739471884545004
 11
11.347942148436877
 21
-4.6671714683710128
  0
LINE
  8
_0-0_
  6
CONTINUOUS
 62
    7
 10
21.416164379420557
 20
-7.5881989057551671
 11
20.546071100199747
 21
-8.4582921849759778
  0
LINE
  8
_0-0_
  6
CONTINUOUS
 62
    7
 10
22.34840717858571
 20
-8.3339931450872946
 11
21.229715819587533
 21
-9.2973107042246177
  0
LINE
  8
_0-0_
  6
CONTINUOUS
 62
    7
 10
23.342799497695204
 20
-13.399179020551305
 11
22.037659578863973
 21
-13.772076140217369
  0
LINE
  8
_0-0_
  6
CONTINUOUS
 62
    7
 10
21.726911979142265
 20
-14.42464609963297
 11
23.000977138001325
 21
-14.051748979966906
  0
LINE
  8
_0-0_
  6
CONTINUOUS
 62
    7
 10
-8.187864549351767
 20
-11.779627357965385
 11
-8.257765143212092
 21
-13.404816165217472
  0
LINE
  8
_0-0_
  6
CONTINUOUS
 62
    7
 10
-8.0830136585613079
 20
-11.9456412683836
 11
-8.1529142524216329
 21
-13.570830075635687
  0
LINE
  8
_0-0_
  6
CONTINUOUS
 62
    7
 10
-7.9082621739105514
 20
-12.033017010708978
 11
-7.9781627677708764
 21
-13.658205817961065
  0
LINE
  8
_0-0_
  6
CONTINUOUS
 62
    7
 10
-7.7335106892597958
 20
-12.172818198429585
 11
-7.8034112831201208
 21
-13.798007005681672
  0
LINE
  8
_0-0_
  6
CONTINUOUS
 62
    7
 10
-7.5063337592137964
 20
-12.312619386150192
 11
-7.5762343530741214
 21
-13.937808193402279
  0
LINE
  8
_0-0_
  6
CONTINUOUS
 62
    7
 10
-7.2966319776328783
 20
-12.469895722335881
 11
-7.3665325714932033
 21
-14.095084529587968
  0
LINE
  8
_0-0_
  6
CONTINUOUS
 62
    7
 10
-7.0519798991218261
 20
-12.644647206986651
 11
-7.1218804929821511
 21
-14.269836014238738
  0
LINE
  8
_0-0_
  6
CONTINUOUS
 62
    7
 10
-6.8597532660059892
 20
-12.74949809777711
 11
-6.9296538598663142
 21
-14.374686905029197
  0
LINE
  8
_0-0_
  6
CONTINUOUS
 62
    7
 10
-6.5976260390298274
 20
-12.906774433962784
 11
-6.6675266328901523
 21
-14.531963241214871
  0
LINE
  8
_0-0_
  6
CONTINUOUS
 62
    7
 10
-6.2655982181933974
 20
-13.046575621683406
 11
-6.3354988120537223
 21
-14.671764428935493
  0
LINE
  8
_0-0_
  6
CONTINUOUS
 62
    7
 10
-6.0209461396823167
 20
-13.168901660938932
 11
-6.0908467335426417
 21
-14.794090468191019
  0
LINE
  8
_0-0_
  6
CONTINUOUS
 62
    7
 10
-5.7238686157760208
 20
-13.20385195786908
 11
-5.7937692096363458
 21
-14.829040765121167
  0
LINE
  8
_0-0_
  6
CONTINUOUS
 62
    7
 10
-5.3743656464745095
 20
-13.361128294054769
 11
-5.4442662403348345
 21
-14.986317101306856
  0
LINE
  8
_0-0_
  6
CONTINUOUS
 62
    7
 10
-5.0598129741031324
 20
-13.448504036380147
 11
-5.1297135679634573
 21
-15.073692843632234
  0
LINE
  8
_0-0_
  6
CONTINUOUS
 62
    7
 10
-4.6578845594063774
 20
-13.553354927170606
 11
-4.7277851532667023
 21
-15.178543734422693
  0
LINE
  8
_0-0_
  6
CONTINUOUS
 62
    7
 10
-4.203530699314407
 20
-13.658205817961065
 11
-4.273431293174732
 21
-15.283394625213152
  0
LINE
  8
_0-0_
  6
CONTINUOUS
 62
    7
 10
-3.8889780269430299
 20
-13.728106411821376
 11
-3.9588786208033548
 21
-15.353295219073463
  0
LINE
  8
_0-0_
  6
CONTINUOUS
 62
    7
 10
-3.4695744637811936
 20
-13.780531857216605
 11
-3.5394750576415186
 21
-15.405720664468692
  0
LINE
  8
_0-0_
  6
CONTINUOUS
 62
    7
 10
-2.9453200098288983
 20
-13.832957302611835
 11
-3.0152206036892233
 21
-15.458146109863922
  0
LINE
  8
_0-0_
  6
CONTINUOUS
 62
    7
 10
-2.5259164466670905
 20
-13.867907599541983
 11
-2.5958170405274155
 21
-15.49309640679407
  0
LINE
  8
_0-0_
  6
CONTINUOUS
 62
    7
 10
-2.1239880319703355
 20
-13.902857896472131
 11
-2.1938886258306605
 21
-15.528046703724218
  0
LINE
  8
_0-0_
  6
CONTINUOUS
 62
    7
 10
-1.774485062668796
 20
-13.867907599541983
 11
-1.844385656529121
 21
-15.49309640679407
  0
LINE
  8
_0-0_
  6
CONTINUOUS
 62
    7
 10
-1.3550814995069598
 20
-13.937808193402279
 11
-1.4249820933672848
 21
-15.562997000654367
  0
LINE
  8
_0-0_
  6
CONTINUOUS
 62
    7
 10
-0.8483021940197741
 20
-13.902857896472131
 11
-0.9182027878800991
 21
-15.528046703724218
  0
LINE
  8
_0-0_
  6
CONTINUOUS
 62
    7
 10
-0.34152288853256
 20
-13.920333044937212
 11
-0.411423482392885
 21
-15.545521852189299
  0
LINE
  8
_0-0_
  6
CONTINUOUS
 62
    7
 10
0.1128309715594386
 20
-13.885382748007064
 11
0.0429303776991136
 21
-15.510571555259151
  0
LINE
  8
_0-0_
  6
CONTINUOUS
 62
    7
 10
0.5671848316514089
 20
-13.850432451076902
 11
0.4972842377910839
 21
-15.475621258328989
  0
LINE
  8
_0-0_
  6
CONTINUOUS
 62
    7
 10
0.8642623555577049
 20
-13.850432451076902
 11
0.7943617616973799
 21
-15.475621258328989
  0
LINE
  8
_0-0_
  6
CONTINUOUS
 62
    7
 10
1.1788150279290821
 20
-13.832957302611835
 11
1.1089144340687571
 21
-15.458146109863922
  0
LINE
  8
_0-0_
  6
CONTINUOUS
 62
    7
 10
1.475892551835378
 20
-13.815482154146753
 11
1.4059919579750531
 21
-15.44067096139884
  0
LINE
  8
_0-0_
  6
CONTINUOUS
 62
    7
 10
1.9651967088575109
 20
-13.780531857216605
 11
1.8952961149971859
 21
-15.405720664468692
  0
LINE
  8
_0-0_
  6
CONTINUOUS
 62
    7
 10
2.3146996781590223
 20
-13.745581560286443
 11
2.2447990842986973
 21
-15.37077036753853
  0
LINE
  8
_0-0_
  6
CONTINUOUS
 62
    7
 10
2.6816777959256433
 20
-13.728106411821376
 11
2.6117772020653183
 21
-15.353295219073463
  0
LINE
  8
_0-0_
  6
CONTINUOUS
 62
    7
 10
3.066131062157317
 20
-13.728106411821376
 11
2.996230468296992
 21
-15.353295219073463
  0
LINE
  8
_0-0_
  6
CONTINUOUS
 62
    7
 10
3.5204849222492873
 20
-13.623255521030917
 11
3.4505843283889623
 21
-15.248444328283004
  0
LINE
  8
_0-0_
  6
CONTINUOUS
 62
    7
 10
3.8525127430857458
 20
-13.465979184845228
 11
3.7826121492254208
 21
-15.091167992097315
  0
LINE
  8
_0-0_
  6
CONTINUOUS
 62
    7
 10
4.2893914547126348
 20
-13.448504036380147
 11
4.2194908608523098
 21
-15.073692843632234
  0
LINE
  8
_0-0_
  6
CONTINUOUS
 62
    7
 10
4.7437453148046336
 20
-13.291227700194472
 11
4.6738447209443086
 21
-14.916416507446559
  0
LINE
  8
_0-0_
  6
CONTINUOUS
 62
    7
 10
5.1107234325712261
 20
-13.221327106334162
 11
5.0408228387109011
 21
-14.846515913586249
  0
LINE
  8
_0-0_
  6
CONTINUOUS
 62
    7
 10
5.5476021441981436
 20
-13.064050770148473
 11
5.4777015503378186
 21
-14.68923957740056
  0
LINE
  8
_0-0_
  6
CONTINUOUS
 62
    7
 10
5.7223536288488992
 20
-12.994150176288176
 11
5.6524530349885742
 21
-14.619338983540263
  0
LINE
  8
_0-0_
  6
CONTINUOUS
 62
    7
 10
6.0019560042901139
 20
-12.924249582427866
 11
5.9320554104297889
 21
-14.549438389679953
  0
LINE
  8
_0-0_
  6
CONTINUOUS
 62
    7
 10
6.2640832312662473
 20
-12.819398691637407
 11
6.1941826374059223
 21
-14.444587498889494
  0
LINE
  8
_0-0_
  6
CONTINUOUS
 62
    7
 10
6.5262104582424092
 20
-12.644647206986651
 11
6.4563098643820842
 21
-14.269836014238738
  0
LINE
  8
_0-0_
  6
CONTINUOUS
 62
    7
 10
6.7533873882883801
 20
-12.434945425405733
 11
6.6834867944280552
 21
-14.06013423265782
  0
LINE
  8
_0-0_
  6
CONTINUOUS
 62
    7
 10
7.0679400606597573
 20
-12.399995128475584
 11
6.9980394667994323
 21
-14.025183935727672
  0
LINE
  8
_0-0_
  6
CONTINUOUS
 62
    7
 10
7.2776418422406755
 20
-12.172818198429585
 11
7.2077412483803505
 21
-13.798007005681672
  0
LINE
  8
_0-0_
  6
CONTINUOUS
 62
    7
 10
7.5572442176818901
 20
-11.928166119918519
 11
7.4873436238215652
 21
-13.553354927170606
  0
LINE
  8
_0-0_
  6
CONTINUOUS
 62
    7
 10
7.7319957023326742
 20
-11.631088596012223
 11
7.6620951084723492
 21
-13.25627740326431
  0
LINE
  8
_0-0_
  6
CONTINUOUS
 62
    7
 10
-8.3800911824676039
 20
-11.578663150616993
 11
-8.4499917763279289
 21
-13.20385195786908
  0
ARC
  8
_0-0_
  6
CONTINUOUS
 62
    7
 10
-0.2087772319517367
 20
2.9578672087714151
 40
16.503465065304031
 50
240.67040857483155
 51
298.83028495971877
  0
ARC
  8
_0-0_
  6
CONTINUOUS
 62
    7
 10
0.2588578938916075
 20
5.1528537977975013
 40
17.968918132796649
 50
243.46569471186075
 51
293.78149086154986
  0
LINE
  8
_0-0_
  6
CONTINUOUS
 62
    7
 10
-7.0170296021916636
 20
-10.486466371549742
 11
-7.0345047506567449
 21
-11.185472310152793
  0
LINE
  8
_0-0_
  6
CONTINUOUS
 62
    7
 10
-3.8365525815478145
 20
-9.4379574636451657
 11
-3.8889780269430299
 21
-12.268931514987518
  0
LINE
  8
_0-0_
  6
CONTINUOUS
 62
    7
 10
-3.0851211975495199
 20
-9.3331065728547067
 11
-3.1025963460146011
 21
-12.408732702708125
  0
LINE
  8
_0-0_
  6
CONTINUOUS
 62
    7
 10
-1.4948826872275813
 20
-9.1758302366690181
 11
-1.5298329841577438
 21
-12.618434484289043
  0
LINE
  8
_0-0_
  6
CONTINUOUS
 62
    7
 10
-0.7085010062991525
 20
-9.1933053851340993
 11
-0.7259761547642338
 21
-12.670859929684273
  0
LINE
  8
_0-0_
  6
CONTINUOUS
 62
    7
 10
3.0311807652271545
 20
-9.4379574636451657
 11
3.0486559136922358
 21
-12.496108445033503
  0
LINE
  8
_0-0_
  6
CONTINUOUS
 62
    7
 10
3.800087297690502
 20
-9.5777586513657731
 11
3.8175624461555833
 21
-12.391257554243044
  0
LINE
  8
_0-0_
  6
CONTINUOUS
 62
    7
 10
5.1456737295013601
 20
-9.9796870660625281
 11
5.233049471826738
 21
-11.832052803360614
  0
LINE
  8
_0-0_
  6
CONTINUOUS
 62
    7
 10
5.8272045196393298
 20
-10.294239738433905
 11
5.8621548165694923
 21
-11.604875873314615
  0
LINE
  8
_0-0_
  6
CONTINUOUS
 62
    7
 10
24.18245488862231
 20
-6.998374794804068
 11
23.822446042311576
 21
-5.5134691184654123
  0
LINE
  8
_0-0_
  6
CONTINUOUS
 62
    7
 10
23.822446042311576
 20
-5.5134691184654123
 11
22.732332972063652
 21
-4.0684259262246378
  0
LINE
  8
_0-0_
  6
CONTINUOUS
 62
    7
 10
22.732332972063652
 20
-4.0684259262246378
 11
20.945238211894257
 21
-2.7071521242508427
  0
LINE
  8
_0-0_
  6
CONTINUOUS
 62
    7
 10
20.945238211894257
 20
-2.7071521242508427
 11
18.515461731777457
 21
-1.4710093281792245
  0
LINE
  8
_0-0_
  6
CONTINUOUS
 62
    7
 10
18.515461731777457
 20
-1.4710093281792245
 11
15.516831060535472
 21
-0.3975571113499715
  0
LINE
  8
_0-0_
  6
CONTINUOUS
 62
    7
 10
15.516831060535472
 20
-0.3975571113499715
 11
12.040458073733609
 21
0.4805882238215811
  0
LINE
  8
_0-0_
  6
CONTINUOUS
 62
    7
 10
12.040458073733609
 20
0.4805882238215811
 11
8.1919706054462349
 21
1.1367446756892401
  0
LINE
  8
_0-0_
  6
CONTINUOUS
 62
    7
 10
8.1919706054462349
 20
1.1367446756892401
 11
4.0883029999686391
 21
1.5509752624941735
  0
LINE
  8
_0-0_
  6
CONTINUOUS
 62
    7
 10
4.0883029999686391
 20
1.5509752624941735
 11
-0.1458568790627705
 21
1.7106937974671121
  0
LINE
  8
_0-0_
  6
CONTINUOUS
 62
    7
 10
-0.1458568790627705
 20
1.7106937974671121
 11
-4.3818562263118475
 21
1.6110473137443899
  0
LINE
  8
_0-0_
  6
CONTINUOUS
 62
    7
 10
-4.3818562263118475
 20
1.6110473137443899
 11
-8.4909863451315548
 21
1.2550635193103512
  0
LINE
  8
_0-0_
  6
CONTINUOUS
 62
    7
 10
-8.4909863451315548
 20
1.2550635193103512
 11
-12.348393396181743
 21
0.6535588016223922
  0
LINE
  8
_0-0_
  6
CONTINUOUS
 62
    7
 10
-12.348393396181743
 20
0.6535588016223922
 11
-15.836872018158383
 21
-0.1751904228486044
  0
LINE
  8
_0-0_
  6
CONTINUOUS
 62
    7
 10
-15.836872018158383
 20
-0.1751904228486044
 11
-18.850426553388054
 21
-1.2060030282844314
  0
LINE
  8
_0-0_
  6
CONTINUOUS
 62
    7
 10
-18.850426553388054
 20
-1.2060030282844314
 11
-21.29749167225004
 21
-2.4075582952852872
  0
LINE
  8
_0-0_
  6
CONTINUOUS
 62
    7
 10
-21.29749167225004
 20
-2.4075582952852872
 11
-23.103714539382345
 21
-3.7433475750796421
  0
LINE
  8
_0-0_
  6
CONTINUOUS
 62
    7
 10
-23.103714539382345
 20
-3.7433475750796421
 11
-24.214213986960068
 21
-5.1727835863429199
  0
LINE
  8
_0-0_
  6
CONTINUOUS
 62
    7
 10
-24.214213986960068
 20
-5.1727835863429199
 11
-24.595248051208394
 21
-6.6524336392024317
  0
LINE
  8
_0-0_
  6
CONTINUOUS
 62
    7
 10
24.18245488862231
 20
-6.9599368886261068
 11
24.413082325690048
 21
-11.149668662023704
  0
LINE
  8
_0-0_
  6
CONTINUOUS
 62
    7
 10
-24.556810145030433
 20
-6.6139957330244705
 11
-24.748999675920238
 21
-11.534047723803301
  0
LINE
  8
_0-0_
  6
CONTINUOUS
 62
    7
 10
-24.444271137345943
 20
-5.8862870082073506
 11
-24.535673377089701
 21
-10.443341532575207
  0
LINE
  8
_0-0_
  6
CONTINUOUS
 62
    7
 10
-24.26799538926867
 20
-5.4488620037193165
 11
-24.359397629012427
 21
-10.005916528087173
  0
LINE
  8
_0-0_
  6
CONTINUOUS
 62
    7
 10
-24.111305835422208
 20
-5.0832530447442572
 11
-24.202708075165965
 21
-9.6403075691121138
  0
LINE
  8
_0-0_
  6
CONTINUOUS
 62
    7
 10
-23.902386430293582
 20
-4.8482187139745641
 11
-23.99378867003734
 21
-9.4052732383424207
  0
LINE
  8
_0-0_
  6
CONTINUOUS
 62
    7
 10
-23.706524487985526
 20
-4.4826097549994905
 11
-23.797926727729283
 21
-9.0396642793673472
  0
LINE
  8
_0-0_
  6
CONTINUOUS
 62
    7
 10
-23.4976050828569
 20
-4.2998052755119467
 11
-23.589007322600658
 21
-8.8568597998798033
  0
LINE
  8
_0-0_
  6
CONTINUOUS
 62
    7
 10
-23.24951328926668
 20
-3.8950239280752643
 11
-23.340915529010438
 21
-8.4520784524431214
  0
LINE
  8
_0-0_
  6
CONTINUOUS
 62
    7
 10
-23.014478958496973
 20
-3.673047060126112
 11
-23.105881198240731
 21
-8.2301015844939691
  0
LINE
  8
_0-0_
  6
CONTINUOUS
 62
    7
 10
-22.753329702086212
 20
-3.3988403408948105
 11
-22.84473194182997
 21
-7.9558948652626675
  0
LINE
  8
_0-0_
  6
CONTINUOUS
 62
    7
 10
-22.505237908495992
 20
-3.2421507870483484
 11
-22.59664014823975
 21
-7.7992053114162054
  0
LINE
  8
_0-0_
  6
CONTINUOUS
 62
    7
 10
-22.21797372644415
 20
-2.9679440678170468
 11
-22.309375966187908
 21
-7.5249985921849039
  0
LINE
  8
_0-0_
  6
CONTINUOUS
 62
    7
 10
-21.937238275802578
 20
-2.8961280223040862
 11
-21.937238275802578
 21
-6.9569989594914894
  0
LINE
  8
_0-0_
  6
CONTINUOUS
 62
    7
 10
-21.584686779648059
 20
-2.6415074973035959
 11
-21.584686779648059
 21
-6.7023784344909991
  0
LINE
  8
_0-0_
  6
CONTINUOUS
 62
    7
 10
-21.179905432211378
 20
-2.3803582408928352
 11
-21.179905432211378
 21
-6.4412291780802384
  0
LINE
  8
_0-0_
  6
CONTINUOUS
 62
    7
 10
-20.775124084774667
 20
-2.1583813729436829
 11
-20.775124084774667
 21
-6.2192523101310861
  0
LINE
  8
_0-0_
  6
CONTINUOUS
 62
    7
 10
-20.383400200158526
 20
-1.92334704217399
 11
-20.383400200158526
 21
-5.984217979361393
  0
LINE
  8
_0-0_
  6
CONTINUOUS
 62
    7
 10
-19.965561389901303
 20
-1.7536000255070012
 11
-19.965561389901303
 21
-5.8144709626944042
  0
LINE
  8
_0-0_
  6
CONTINUOUS
 62
    7
 10
-19.521607654002999
 20
-1.5446806203783756
 11
-19.521607654002999
 21
-5.6055515575657786
  0
LINE
  8
_0-0_
  6
CONTINUOUS
 62
    7
 10
-19.077653918104694
 20
-1.2835313639676149
 11
-19.077653918104694
 21
-5.3444023011550179
  0
LINE
  8
_0-0_
  6
CONTINUOUS
 62
    7
 10
-18.620642719385849
 20
-1.0876694216595444
 11
-18.620642719385849
 21
-5.1485403588469474
  0
LINE
  8
_0-0_
  6
CONTINUOUS
 62
    7
 10
-18.059171818102705
 20
-0.9048649421720004
 11
-18.059171818102705
 21
-4.9657358793594035
  0
LINE
  8
_0-0_
  6
CONTINUOUS
 62
    7
 10
-17.517153871633845
 20
-0.6666328654054641
 11
-17.517153871633845
 21
-4.7275038025928673
  0
LINE
  8
_0-0_
  6
CONTINUOUS
 62
    7
 10
-16.380888127413961
 20
-0.2924965837720808
 11
-16.380888127413961
 21
-4.353367520959484
  0
LINE
  8
_0-0_
  6
CONTINUOUS
 62
    7
 10
-15.604901765507671
 20
-0.2093551878535497
 11
-15.604901765507671
 21
-4.0927162048922732
  0
LINE
  8
_0-0_
  6
CONTINUOUS
 62
    7
 10
-15.036768893397729
 20
0.053925899221792
 11
-15.036768893397729
 21
-3.9135239309107592
  0
LINE
  8
_0-0_
  6
CONTINUOUS
 62
    7
 10
-14.37163772604948
 20
0.1509241944600855
 11
-14.37163772604948
 21
-3.717135497760768
  0
LINE
  8
_0-0_
  6
CONTINUOUS
 62
    7
 10
-13.761934155980279
 20
0.2756362883378752
 11
-13.761934155980279
 21
-3.548955225383867
  0
LINE
  8
_0-0_
  6
CONTINUOUS
 62
    7
 10
-13.041375391353009
 20
0.4557759794946857
 11
-13.041375391353009
 21
-3.3638308803544734
  0
LINE
  8
_0-0_
  6
CONTINUOUS
 62
    7
 10
9.5869411978067571
 20
0.6815664238194439
 11
9.5869411978067571
 21
-2.7213113398575817
  0
LINE
  8
_0-0_
  6
CONTINUOUS
 62
    7
 10
7.7716873869188623
 20
1.0002751081738064
 11
7.7716873869188623
 21
-2.4394125830492359
  0
LINE
  8
_0-0_
  6
CONTINUOUS
 62
    7
 10
7.1619838168496335
 20
1.111130302731848
 11
7.1619838168496335
 21
-2.3592171318627098
  0
LINE
  8
_0-0_
  6
CONTINUOUS
 62
    7
 10
6.3998543542631046
 20
1.1665579000108688
 11
6.3998543542631046
 21
-2.2687513424538852
  0
LINE
  8
_0-0_
  6
CONTINUOUS
 62
    7
 10
5.1804472141246753
 20
1.3051268932084208
 11
5.1804472141246753
 21
-2.1459065268175013
  0
LINE
  8
_0-0_
  6
CONTINUOUS
 62
    7
 10
4.5014591474566918
 20
1.3328406918479312
 11
4.5014591474566918
 21
-2.0888660165161244
  0
LINE
  8
_0-0_
  6
CONTINUOUS
 62
    7
 10
1.7300792835057084
 20
1.4436958864059728
 11
1.7300792835057084
 21
-1.9372918084364021
  0
LINE
  8
_0-0_
  6
CONTINUOUS
 62
    7
 10
1.1065188141167457
 20
1.4714096850454832
 11
1.1065188141167457
 21
-1.9207750118035596
  0
LINE
  8
_0-0_
  6
CONTINUOUS
 62
    7
 10
0.4691014454080206
 20
1.4991234836849936
 11
0.4691014454080206
 21
-1.9104761534598997
  0
LINE
  8
_0-0_
  6
CONTINUOUS
 62
    7
 10
-0.1683159233007043
 20
1.5406941816442521
 11
-0.1683159233007043
 21
-1.9068159836220848
  0
LINE
  8
_0-0_
  6
CONTINUOUS
 62
    7
 10
-0.8473039899686878
 20
1.5545510809640002
 11
-0.8473039899686878
 21
-1.9102136158658458
  0
LINE
  8
_0-0_
  6
CONTINUOUS
 62
    7
 10
-1.5124351573169375
 20
1.5684079802837625
 11
-1.5124351573169375
 21
-1.9208499620700115
  0
LINE
  8
_0-0_
  6
CONTINUOUS
 62
    7
 10
-2.2745646199034377
 20
1.5961217789232729
 11
-2.2745646199034377
 21
-1.9419636825015976
  0
LINE
  8
_0-0_
  6
CONTINUOUS
 62
    7
 10
-2.9812664852109458
 20
1.5129803830047417
 11
-2.9812664852109458
 21
-1.9701151020751018
  0
LINE
  8
_0-0_
  6
CONTINUOUS
 62
    7
 10
-3.7156821491579501
 20
1.4991234836849936
 11
-3.7156821491579501
 21
-2.0081939976478114
  0
LINE
  8
_0-0_
  6
CONTINUOUS
 62
    7
 10
-4.408527115145696
 20
1.4714096850454832
 11
-4.408527115145696
 21
-2.0524589037827101
  0
LINE
  8
_0-0_
  6
CONTINUOUS
 62
    7
 10
-5.1013720811334418
 20
1.3744113898071897
 11
-5.1013720811334418
 21
-2.1049392003992184
  0
LINE
  8
_0-0_
  6
CONTINUOUS
 62
    7
 10
-5.8912153423594669
 20
1.3466975911676793
 11
-5.8912153423594669
 21
-2.174965942131553
  0
LINE
  8
_0-0_
  6
CONTINUOUS
 62
    7
 10
-6.5009189124286957
 20
1.3189837925281689
 11
-6.5009189124286957
 21
-2.2366010553894884
  0
LINE
  8
_0-0_
  6
CONTINUOUS
 62
    7
 10
-7.0967655831781622
 20
1.2912699938886585
 11
-7.0967655831781622
 21
-2.3033538137535774
  0
LINE
  8
_0-0_
  6
CONTINUOUS
 62
    7
 10
-7.7341829518868872
 20
1.2635561952491481
 11
-7.7341829518868872
 21
-2.3820578721744314
  0
LINE
  8
_0-0_
  6
CONTINUOUS
 62
    7
 10
-8.5240262131129132
 20
1.1249872020516103
 11
-8.5240262131129132
 21
-2.4903323027426185
  0
LINE
  8
_0-0_
  6
CONTINUOUS
 62
    7
 10
-9.1753004811414005
 20
1.0141320074935687
 11
-9.1753004811414005
 21
-2.5888447201716676
  0
LINE
  8
_0-0_
  6
CONTINUOUS
 62
    7
 10
-9.9512868430476633
 20
0.9448475108947856
 11
-9.9512868430476633
 21
-2.7175283801089338
  0
LINE
  8
_0-0_
  6
CONTINUOUS
 62
    7
 10
-10.602561111076151
 20
0.8617061149762544
 11
-10.602561111076151
 21
-2.8353936576673564
  0
LINE
  8
_0-0_
  6
CONTINUOUS
 62
    7
 10
-11.253835379104638
 20
0.7785647190577375
 11
-11.253835379104638
 21
-2.9626500586573061
  0
LINE
  8
_0-0_
  6
CONTINUOUS
 62
    7
 10
-11.766540653935559
 20
0.6538526251799335
 11
-11.766540653935559
 21
-3.0697101927913653
  0
LINE
  8
_0-0_
  6
CONTINUOUS
 62
    7
 10
-12.320816626725767
 20
0.6261388265404231
 11
-12.320816626725767
 21
-3.1925578431240527
  0
LINE
  8
_0-0_
  6
CONTINUOUS
 62
    7
 10
-16.962877898843665
 20
-0.5834914694869329
 11
-16.962877898843665
 21
-4.5687707916560534
  0
LINE
  8
_0-0_
  6
CONTINUOUS
 62
    7
 10
10.196644767875958
 20
0.6521530576361381
 11
10.196644767875958
 21
-2.8312425204468812
  0
LINE
  8
_0-0_
  6
CONTINUOUS
 62
    7
 10
10.903346633183466
 20
0.5024632407806958
 11
10.903346633183466
 21
-2.9688501918992531
  0
LINE
  8
_0-0_
  6
CONTINUOUS
 62
    7
 10
11.540764001892191
 20
0.4276183323529746
 11
11.540764001892191
 21
-3.1027597042892583
  0
LINE
  8
_0-0_
  6
CONTINUOUS
 62
    7
 10
12.136610672641657
 20
0.2592172883905984
 11
12.136610672641657
 21
-3.2367338632524851
  0
LINE
  8
_0-0_
  6
CONTINUOUS
 62
    7
 10
13.466873007338128
 20
-0.0027398911064186
 11
13.466873007338128
 21
-3.5687056297695849
  0
LINE
  8
_0-0_
  6
CONTINUOUS
 62
    7
 10
12.815598739309641
 20
0.1282386986420898
 11
12.815598739309641
 21
-3.4002971420682004
  0
LINE
  8
_0-0_
  6
CONTINUOUS
 62
    7
 10
13.979578282169049
 20
-0.0962960266410736
 11
13.979578282169049
 21
-3.7096851526457644
  0
LINE
  8
_0-0_
  6
CONTINUOUS
 62
    7
 10
14.381428362441957
 20
-0.2085633892826483
 11
14.381428362441957
 21
-3.8256355032577178
  0
LINE
  8
_0-0_
  6
CONTINUOUS
 62
    7
 10
14.880276737953144
 20
-0.3582532061380906
 11
14.880276737953144
 21
-3.9765887940475753
  0
LINE
  8
_0-0_
  6
CONTINUOUS
 62
    7
 10
15.198985422307507
 20
-0.4518093416727456
 11
15.198985422307507
 21
-4.0772938021676346
  0
LINE
  8
_0-0_
  6
CONTINUOUS
 62
    7
 10
15.517694106661869
 20
-0.5266542501004668
 11
15.517694106661869
 21
-4.1814786404660857
  0
LINE
  8
_0-0_
  6
CONTINUOUS
 62
    7
 10
16.002685582853267
 20
-0.7137665211697626
 11
16.002685582853267
 21
-4.3470289491623824
  0
LINE
  8
_0-0_
  6
CONTINUOUS
 62
    7
 10
16.335251166527392
 20
-0.8821675651321389
 11
16.335251166527392
 21
-4.465697256758336
  0
LINE
  8
_0-0_
  6
CONTINUOUS
 62
    7
 10
16.556961555643475
 20
-0.9757237006667939
 11
16.556961555643475
 21
-4.5472549251719308
  0
LINE
  8
_0-0_
  6
CONTINUOUS
 62
    7
 10
16.944954736596621
 20
-0.95701247355986
 11
16.944954736596621
 21
-4.694919394108485
  0
LINE
  8
_0-0_
  6
CONTINUOUS
 62
    7
 10
17.402232414148521
 20
-1.2189696530568772
 11
17.402232414148521
 21
-4.8775004312467054
  0
LINE
  8
_0-0_
  6
CONTINUOUS
 62
    7
 10
17.942651487618967
 20
-1.4435043783400408
 11
17.942651487618967
 21
-5.1061965535151366
  0
LINE
  8
_0-0_
  6
CONTINUOUS
 62
    7
 10
18.275217071293092
 20
-1.5744829680885635
 11
18.275217071293092
 21
-5.2544881644035151
  0
LINE
  8
_0-0_
  6
CONTINUOUS
 62
    7
 10
18.607782654967217
 20
-1.705461557837072
 11
18.607782654967217
 21
-5.4090204267583211
  0
LINE
  8
_0-0_
  6
CONTINUOUS
 62
    7
 10
18.815636144763538
 20
-1.7803064662647932
 11
18.815636144763538
 21
-5.5089769787924361
  0
LINE
  8
_0-0_
  6
CONTINUOUS
 62
    7
 10
19.342198318914221
 20
-2.0983973270825973
 11
19.342198318914221
 21
-5.7748172360865375
  0
LINE
  8
_0-0_
  6
CONTINUOUS
 62
    7
 10
19.5916225066698
 20
-2.22937591683112
 11
19.5916225066698
 21
-5.9075929668785996
  0
LINE
  8
_0-0_
  6
CONTINUOUS
 62
    7
 10
20.021186385582205
 20
-2.3042208252588412
 11
20.021186385582205
 21
-6.1477638319188976
  0
LINE
  8
_0-0_
  6
CONTINUOUS
 62
    7
 10
20.367608868576063
 20
-2.4726218692212032
 11
20.367608868576063
 21
-6.3531786690387584
  0
LINE
  8
_0-0_
  6
CONTINUOUS
 62
    7
 10
20.824886546127992
 20
-2.9778250011083176
 11
20.824886546127992
 21
-6.6426554807391689
  0
LINE
  8
_0-0_
  6
CONTINUOUS
 62
    7
 10
21.309878022319417
 20
-3.1836484992845615
 11
21.309878022319417
 21
-6.9763778408019625
  0
LINE
  8
_0-0_
  6
CONTINUOUS
 62
    7
 10
21.614729807354017
 20
-3.3894719974607912
 11
21.614729807354017
 21
-7.2028490310339244
  0
LINE
  8
_0-0_
  6
CONTINUOUS
 62
    7
 10
21.947295391028142
 20
-3.7449853124924632
 11
21.947295391028142
 21
-7.4674522521717144
  0
LINE
  8
_0-0_
  6
CONTINUOUS
 62
    7
 10
22.210576478103484
 20
-3.9695200377756268
 11
22.210576478103484
 21
-7.6921979918492163
  0
LINE
  8
_0-0_
  6
CONTINUOUS
 62
    7
 10
22.570855860417105
 20
-4.1753435359518569
 11
22.570855860417105
 21
-8.0264030669709889
  0
LINE
  8
_0-0_
  6
CONTINUOUS
 62
    7
 10
22.972705940690012
 20
-4.5869905323043163
 11
22.972705940690012
 21
-8.4460431461401733
  0
LINE
  8
_0-0_
  6
CONTINUOUS
 62
    7
 10
23.374556020962892
 20
-5.1296161184052984
 11
23.374556020962892
 21
-8.9364388634334411
  0
LINE
  8
_0-0_
  6
CONTINUOUS
 62
    7
 10
23.679407805997492
 20
-5.5973967960785451
 11
23.679407805997492
 21
-9.3822335266391725
  0
LINE
  8
_0-0_
  6
CONTINUOUS
 62
    7
 10
23.9288319937531
 20
-5.9903325653240849
 11
23.9288319937531
 21
-9.8278349265016978
  0
LINE
  8
_0-0_
  6
CONTINUOUS
 62
    7
 10
8.9218100304585075
 20
0.9018744453095134
 11
8.9218100304585075
 21
-2.6103106201250514
  0
LINE
  8
_0-0_
  6
CONTINUOUS
 62
    7
 10
8.4506754535868449
 20
1.0041307055499369
 11
8.4506754535868449
 21
-2.5371415696532185
  0
LINE
  8
_0-0_
  6
CONTINUOUS
 62
    7
 10
5.8178645828334004
 20
1.2881758728844483
 11
5.8178645828334004
 21
-2.2068086268774212
  0
LINE
  8
_0-0_
  6
CONTINUOUS
 62
    7
 10
3.725472785550429
 20
1.4586029732851495
 11
3.725472785550429
 21
-2.0333969099631335
  0
LINE
  8
_0-0_
  6
CONTINUOUS
 62
    7
 10
3.0187709202429209
 20
1.5154120067520405
 11
3.0187709202429209
 21
-1.9917613452066296
  0
LINE
  8
_0-0_
  6
CONTINUOUS
 62
    7
 10
2.3397828535749374
 20
1.5154120067520405
 11
2.3397828535749374
 21
-1.9596310389220724
  0
ARC
  8
_0-0_
  6
CONTINUOUS
 62
    7
 10
17.254604165652175
 20
-31.315933754425561
 40
47.42633168930098
 50
122.2732951677658
 51
141.09753319094713
  0
ARC
  8
_0-0_
  6
CONTINUOUS
 62
    7
 10
7.6103046277686053
 20
-13.256050666979338
 40
27.002357542753689
 50
119.60583667771579
 51
151.17157038472465
  0
ARC
  8
_0-0_
  6
CONTINUOUS
 62
    7
 10
7.9153677099078186
 20
-3.253947390005766
 40
18.201274237015301
 50
128.96819243148602
 51
166.19601975516403
  0
ARC
  8
_0-0_
  6
CONTINUOUS
 62
    7
 10
396.42608629054769
 20
2.6250045026035136
 40
400.04283906348729
 50
178.81510102812911
 51
180.1271607762923
  0
ARC
  8
_0-0_
  6
CONTINUOUS
 62
    7
 10
-47.420975215277771
 20
3.0336946150232333
 40
48.92250900392024
 50
358.54742274523409
 51
9.450524942659424
  0
ARC
  8
_0-0_
  6
CONTINUOUS
 62
    7
 10
-10.688735200040165
 20
-4.7420458199181219
 40
20.71507404071858
 50
16.429989224523435
 51
49.023771177198633
  0
ARC
  8
_0-0_
  6
CONTINUOUS
 62
    7
 10
-14.676530784042038
 20
-22.080756009045476
 40
38.260625921619372
 50
33.541021104890987
 51
57.045119865161638
  0
ARC
  8
_0-0_
  6
CONTINUOUS
 62
    7
 10
-18.012601023476471
 20
-30.919857057492127
 40
47.301943089915092
 50
38.148328898861351
 51
54.111909455169574
  0
LINE
  8
_0-0_
  6
CONTINUOUS
 62
    7
 10
-8.2100081175461614
 20
8.7271706639045838
 11
-8.1795085071341109
 21
8.796793517479724
  0
LINE
  8
_0-0_
  6
CONTINUOUS
 62
    7
 10
-8.1795085071341109
 20
8.796793517479724
 11
-8.1262971209870418
 21
8.9163202092064431
  0
LINE
  8
_0-0_
  6
CONTINUOUS
 62
    7
 10
-8.1262971209870418
 20
8.9163202092064431
 11
-8.0713472599682436
 21
9.0344227037416509
  0
LINE
  8
_0-0_
  6
CONTINUOUS
 62
    7
 10
-8.0713472599682436
 20
9.0344227037416509
 11
-8.0135586235259186
 21
9.1501996104577721
  0
LINE
  8
_0-0_
  6
CONTINUOUS
 62
    7
 10
-8.0135586235259186
 20
9.1501996104577721
 11
-7.9518309111082965
 21
9.2627495387271743
  0
LINE
  8
_0-0_
  6
CONTINUOUS
 62
    7
 10
-7.9518309111082965
 20
9.2627495387271743
 11
-7.8850638221636951
 21
9.371171097922339
  0
LINE
  8
_0-0_
  6
CONTINUOUS
 62
    7
 10
-7.8850638221636951
 20
9.371171097922339
 11
-7.8435962926181242
 21
9.4318087887661441
  0
LINE
  8
_0-0_
  6
CONTINUOUS
 62
    7
 10
-7.8435962926181242
 20
9.4318087887661441
 11
-7.7340343718057989
 21
9.5711448923962017
  0
LINE
  8
_0-0_
  6
CONTINUOUS
 62
    7
 10
-7.7340343718057989
 20
9.5711448923962017
 11
-7.5176837453878784
 21
9.788289891197703
  0
LINE
  8
_0-0_
  6
CONTINUOUS
 62
    7
 10
-7.5176837453878784
 20
9.788289891197703
 11
-7.2725646100962047
 21
9.980196565569539
  0
LINE
  8
_0-0_
  6
CONTINUOUS
 62
    7
 10
-7.2725646100962047
 20
9.980196565569539
 11
-7.0056296314270492
 21
10.151503399954034
  0
LINE
  8
_0-0_
  6
CONTINUOUS
 62
    7
 10
-7.0056296314270492
 20
10.151503399954034
 11
-6.7238314748766834
 21
10.30684887879357
  0
LINE
  8
_0-0_
  6
CONTINUOUS
 62
    7
 10
-6.7238314748766834
 20
10.30684887879357
 11
-6.4341228059413789
 21
10.450871486530499
  0
LINE
  8
_0-0_
  6
CONTINUOUS
 62
    7
 10
-6.4341228059413789
 20
10.450871486530499
 11
-6.2652068929282416
 21
10.531044263550196
  0
LINE
  8
_0-0_
  6
CONTINUOUS
 62
    7
 10
-6.2652068929282416
 20
10.531044263550196
 11
-6.0972774901760625
 21
10.609594268697858
  0
LINE
  8
_0-0_
  6
CONTINUOUS
 62
    7
 10
-6.0972774901760625
 20
10.609594268697858
 11
-5.8095058216538087
 21
10.741392521280599
  0
LINE
  8
_0-0_
  6
CONTINUOUS
 62
    7
 10
-5.8095058216538087
 20
10.741392521280599
 11
-5.5229649050251419
 21
10.867858084991521
  0
LINE
  8
_0-0_
  6
CONTINUOUS
 62
    7
 10
-5.5229649050251419
 20
10.867858084991521
 11
-5.2364926995148915
 21
10.98813721618421
  0
LINE
  8
_0-0_
  6
CONTINUOUS
 62
    7
 10
-5.2364926995148915
 20
10.98813721618421
 11
-4.9489271643477162
 21
11.101376171212276
  0
LINE
  8
_0-0_
  6
CONTINUOUS
 62
    7
 10
-4.9489271643477162
 20
11.101376171212276
 11
-4.65910625874836
 21
11.20672120642919
  0
LINE
  8
_0-0_
  6
CONTINUOUS
 62
    7
 10
-4.65910625874836
 20
11.20672120642919
 11
-4.4895188182771415
 21
11.263867913406212
  0
LINE
  8
_0-0_
  6
CONTINUOUS
 62
    7
 10
-4.4895188182771415
 20
11.263867913406212
 11
-4.1960071096471063
 21
11.354621922263558
  0
LINE
  8
_0-0_
  6
CONTINUOUS
 62
    7
 10
-4.1960071096471063
 20
11.354621922263558
 11
-3.6816827044616582
 21
11.490645337138059
  0
LINE
  8
_0-0_
  6
CONTINUOUS
 62
    7
 10
-3.6816827044616582
 20
11.490645337138059
 11
-3.1587214974121958
 21
11.602249296990063
  0
LINE
  8
_0-0_
  6
CONTINUOUS
 62
    7
 10
-3.1587214974121958
 20
11.602249296990063
 11
-2.6292528109319813
 21
11.691137723989296
  0
LINE
  8
_0-0_
  6
CONTINUOUS
 62
    7
 10
-2.6292528109319813
 20
11.691137723989296
 11
-2.0954059674542487
 21
11.759014540305369
  0
LINE
  8
_0-0_
  6
CONTINUOUS
 62
    7
 10
-2.0954059674542487
 20
11.759014540305369
 11
-1.5593102894122322
 21
11.807583668107977
  0
LINE
  8
_0-0_
  6
CONTINUOUS
 62
    7
 10
-1.5593102894122322
 20
11.807583668107977
 11
-1.2481834439139814
 21
11.827578413295438
  0
LINE
  8
_0-0_
  6
CONTINUOUS
 62
    7
 10
-1.2481834439139814
 20
11.827578413295438
 11
-1.0191276530720554
 21
11.838700937761441
  0
LINE
  8
_0-0_
  6
CONTINUOUS
 62
    7
 10
-1.0191276530720554
 20
11.838700937761441
 11
-0.6246582479007909
 21
11.850879879633251
  0
LINE
  8
_0-0_
  6
CONTINUOUS
 62
    7
 10
-0.6246582479007909
 20
11.850879879633251
 11
-0.2307276306439203
 21
11.854394948274997
  0
LINE
  8
_0-0_
  6
CONTINUOUS
 62
    7
 10
-0.2307276306439203
 20
11.854394948274997
 11
0.1627064855547562
 21
11.849471879037107
  0
LINE
  8
_0-0_
  6
CONTINUOUS
 62
    7
 10
0.1627064855547562
 20
11.849471879037107
 11
0.5556863875513531
 21
11.836336407270093
  0
LINE
  8
_0-0_
  6
CONTINUOUS
 62
    7
 10
0.5556863875513531
 20
11.836336407270093
 11
0.9482543622020418
 21
11.815214268324436
  0
LINE
  8
_0-0_
  6
CONTINUOUS
 62
    7
 10
0.9482543622020418
 20
11.815214268324436
 11
1.1757717056097963
 21
11.799392888300982
  0
LINE
  8
_0-0_
  6
CONTINUOUS
 62
    7
 10
1.1757717056097963
 20
11.799392888300982
 11
1.4491493849596881
 21
11.776920492819354
  0
LINE
  8
_0-0_
  6
CONTINUOUS
 62
    7
 10
1.4491493849596881
 20
11.776920492819354
 11
1.9198020270505285
 21
11.72871133084308
  0
LINE
  8
_0-0_
  6
CONTINUOUS
 62
    7
 10
1.9198020270505285
 20
11.72871133084308
 11
2.3891389448324025
 21
11.667388763452831
  0
LINE
  8
_0-0_
  6
CONTINUOUS
 62
    7
 10
2.3891389448324025
 20
11.667388763452831
 11
2.8566431559243801
 21
11.591634071555571
  0
LINE
  8
_0-0_
  6
CONTINUOUS
 62
    7
 10
2.8566431559243801
 20
11.591634071555571
 11
3.3217976779455318
 21
11.500128536058238
  0
LINE
  8
_0-0_
  6
CONTINUOUS
 62
    7
 10
3.3217976779455318
 20
11.500128536058238
 11
3.7840855285149848
 21
11.391553437867682
  0
LINE
  8
_0-0_
  6
CONTINUOUS
 62
    7
 10
3.7840855285149848
 20
11.391553437867682
 11
4.0506952550449205
 21
11.320238963395123
  0
LINE
  8
_0-0_
  6
CONTINUOUS
 62
    7
 10
4.0506952550449205
 20
11.320238963395123
 11
4.1890207820170735
 21
11.280526815786143
  0
LINE
  8
_0-0_
  6
CONTINUOUS
 62
    7
 10
4.1890207820170735
 20
11.280526815786143
 11
4.4260953337355522
 21
11.207178155142625
  0
LINE
  8
_0-0_
  6
CONTINUOUS
 62
    7
 10
4.4260953337355522
 20
11.207178155142625
 11
4.6604249630745391
 21
11.126479957814521
  0
LINE
  8
_0-0_
  6
CONTINUOUS
 62
    7
 10
4.6604249630745391
 20
11.126479957814521
 11
4.8909046471973658
 21
11.037068235940662
  0
LINE
  8
_0-0_
  6
CONTINUOUS
 62
    7
 10
4.8909046471973658
 20
11.037068235940662
 11
5.1164293632673639
 21
10.937579001660023
  0
LINE
  8
_0-0_
  6
CONTINUOUS
 62
    7
 10
5.1164293632673639
 20
10.937579001660023
 11
5.3358940884478079
 21
10.826648267111462
  0
LINE
  8
_0-0_
  6
CONTINUOUS
 62
    7
 10
5.3358940884478079
 20
10.826648267111462
 11
5.4599715047680411
 21
10.756528463505898
  0
LINE
  8
_0-0_
  6
CONTINUOUS
 62
    7
 10
5.4599715047680411
 20
10.756528463505898
 11
5.5410520410182391
 21
10.707432625759449
  0
LINE
  8
_0-0_
  6
CONTINUOUS
 62
    7
 10
5.5410520410182391
 20
10.707432625759449
 11
5.678349114654444
 21
10.618519951052402
  0
LINE
  8
_0-0_
  6
CONTINUOUS
 62
    7
 10
5.678349114654444
 20
10.618519951052402
 11
5.8128319426931716
 21
10.52494031695613
  0
LINE
  8
_0-0_
  6
CONTINUOUS
 62
    7
 10
5.8128319426931716
 20
10.52494031695613
 11
5.9449033811240986
 21
10.427544151311391
  0
LINE
  8
_0-0_
  6
CONTINUOUS
 62
    7
 10
5.9449033811240986
 20
10.427544151311391
 11
6.07496628593693
 21
10.32718188195906
  0
LINE
  8
_0-0_
  6
CONTINUOUS
 62
    7
 10
6.07496628593693
 20
10.32718188195906
 11
6.2034235131213711
 21
10.224703936739925
  0
LINE
  8
_0-0_
  6
CONTINUOUS
 62
    7
 10
6.2034235131213711
 20
10.224703936739925
 11
6.2773517296074521
 21
10.16463243862216
  0
LINE
  8
_0-0_
  6
CONTINUOUS
 62
    7
 10
6.2773517296074521
 20
10.16463243862216
 11
6.3255473623252589
 21
10.125164820002734
  0
LINE
  8
_0-0_
  6
CONTINUOUS
 62
    7
 10
6.3255473623252589
 20
10.125164820002734
 11
6.4083537282544034
 21
10.056886555213961
  0
LINE
  8
_0-0_
  6
CONTINUOUS
 62
    7
 10
6.4083537282544034
 20
10.056886555213961
 11
6.4908515148187496
 21
9.9883624879130899
  0
LINE
  8
_0-0_
  6
CONTINUOUS
 62
    7
 10
6.4908515148187496
 20
9.9883624879130899
 11
6.5731080974254814
 21
9.9196462867708952
  0
LINE
  8
_0-0_
  6
CONTINUOUS
 62
    7
 10
6.5731080974254814
 20
9.9196462867708952
 11
6.6551908514816978
 21
9.8507916204581782
  0
LINE
  8
_0-0_
  6
CONTINUOUS
 62
    7
 10
6.6551908514816978
 20
9.8507916204581782
 11
6.7371671523946111
 21
9.7818521576456554
  0
LINE
  8
_0-0_
  6
CONTINUOUS
 62
    7
 10
6.7371671523946111
 20
9.7818521576456554
 11
6.7846911795077665
 21
9.7418495637052409
  0
LINE
  8
_0-0_
  6
CONTINUOUS
 62
    7
 10
-7.2235147427399591
 20
9.3472522137827774
 11
-7.1698783637278689
 21
9.3984383608265283
  0
LINE
  8
_0-0_
  6
CONTINUOUS
 62
    7
 10
-7.1698783637278689
 20
9.3984383608265283
 11
-7.0770742177302646
 21
9.4861557055667127
  0
LINE
  8
_0-0_
  6
CONTINUOUS
 62
    7
 10
-7.0770742177302646
 20
9.4861557055667127
 11
-6.9833599871227046
 21
9.572387958858311
  0
LINE
  8
_0-0_
  6
CONTINUOUS
 62
    7
 10
-6.9833599871227046
 20
9.572387958858311
 11
-6.8881596689875915
 21
9.6561951894047375
  0
LINE
  8
_0-0_
  6
CONTINUOUS
 62
    7
 10
-6.8881596689875915
 20
9.6561951894047375
 11
-6.7908972604072142
 21
9.7366374659094639
  0
LINE
  8
_0-0_
  6
CONTINUOUS
 62
    7
 10
-6.7908972604072142
 20
9.7366374659094639
 11
-6.6909967584639469
 21
9.8127748570758477
  0
LINE
  8
_0-0_
  6
CONTINUOUS
 62
    7
 10
-6.6909967584639469
 20
9.8127748570758477
 11
-6.6316187178562496
 21
9.8545916636830917
  0
LINE
  8
_0-0_
  6
CONTINUOUS
 62
    7
 10
-6.6316187178562496
 20
9.8545916636830917
 11
-6.5076842557335306
 21
9.9335988835134081
  0
LINE
  8
_0-0_
  6
CONTINUOUS
 62
    7
 10
-6.5076842557335306
 20
9.9335988835134081
 11
-6.2839730039677386
 21
10.053398298565323
  0
LINE
  8
_0-0_
  6
CONTINUOUS
 62
    7
 10
-6.2839730039677386
 20
10.053398298565323
 11
-6.0498207675193862
 21
10.156018443657668
  0
LINE
  8
_0-0_
  6
CONTINUOUS
 62
    7
 10
-6.0498207675193862
 20
10.156018443657668
 11
-5.8078515775313031
 21
10.245651703563961
  0
LINE
  8
_0-0_
  6
CONTINUOUS
 62
    7
 10
-5.8078515775313031
 20
10.245651703563961
 11
-5.5606894651464041
 21
10.326490463057635
  0
LINE
  8
_0-0_
  6
CONTINUOUS
 62
    7
 10
-5.5606894651464041
 20
10.326490463057635
 11
-5.3109584615074619
 21
10.402727106912206
  0
LINE
  8
_0-0_
  6
CONTINUOUS
 62
    7
 10
-5.3109584615074619
 20
10.402727106912206
 11
-5.1659714181442178
 21
10.446487688566801
  0
LINE
  8
_0-0_
  6
CONTINUOUS
 62
    7
 10
-5.1659714181442178
 20
10.446487688566801
 11
-4.9254671878041245
 21
10.520508568916366
  0
LINE
  8
_0-0_
  6
CONTINUOUS
 62
    7
 10
-4.9254671878041245
 20
10.520508568916366
 11
-4.5134130529734842
 21
10.649941085087104
  0
LINE
  8
_0-0_
  6
CONTINUOUS
 62
    7
 10
-4.5134130529734842
 20
10.649941085087104
 11
-4.1033783490279712
 21
10.777702462231158
  0
LINE
  8
_0-0_
  6
CONTINUOUS
 62
    7
 10
-4.1033783490279712
 20
10.777702462231158
 11
-3.6938720826297322
 21
10.899184945708296
  0
LINE
  8
_0-0_
  6
CONTINUOUS
 62
    7
 10
-3.6938720826297322
 20
10.899184945708296
 11
-3.2834032604409709
 21
11.009780780878369
  0
LINE
  8
_0-0_
  6
CONTINUOUS
 62
    7
 10
-3.2834032604409709
 20
11.009780780878369
 11
-2.8704808891238907
 21
11.104882213101089
  0
LINE
  8
_0-0_
  6
CONTINUOUS
 62
    7
 10
-2.8704808891238907
 20
11.104882213101089
 11
-2.6292741686426178
 21
11.151125813428333
  0
LINE
  8
_0-0_
  6
CONTINUOUS
 62
    7
 10
-2.6292741686426178
 20
11.151125813428333
 11
-2.3872375656591283
 21
11.18985565308591
  0
LINE
  8
_0-0_
  6
CONTINUOUS
 62
    7
 10
-2.3872375656591283
 20
11.18985565308591
 11
-1.966620154590893
 21
11.240493256071087
  0
LINE
  8
_0-0_
  6
CONTINUOUS
 62
    7
 10
-1.966620154590893
 20
11.240493256071087
 11
-1.5425110651043863
 21
11.273347180703464
  0
LINE
  8
_0-0_
  6
CONTINUOUS
 62
    7
 10
-1.5425110651043863
 20
11.273347180703464
 11
-1.1157264544195098
 21
11.29149201740486
  0
LINE
  8
_0-0_
  6
CONTINUOUS
 62
    7
 10
-1.1157264544195098
 20
11.29149201740486
 11
-0.6870824797561649
 21
11.298002356597177
  0
LINE
  8
_0-0_
  6
CONTINUOUS
 62
    7
 10
-0.6870824797561649
 20
11.298002356597177
 11
-0.2573952983342817
 21
11.295952788702206
  0
LINE
  8
_0-0_
  6
CONTINUOUS
 62
    7
 10
-0.2573952983342817
 20
11.295952788702206
 11
-0.0080203441576227
 21
11.292053438400668
  0
LINE
  8
_0-0_
  6
CONTINUOUS
 62
    7
 10
-0.0080203441576227
 20
11.292053438400668
 11
0.293202971934497
 21
11.285435552734381
  0
LINE
  8
_0-0_
  6
CONTINUOUS
 62
    7
 10
0.293202971934497
 20
11.285435552734381
 11
0.8117355414436164
 21
11.26759179581796
  0
LINE
  8
_0-0_
  6
CONTINUOUS
 62
    7
 10
0.8117355414436164
 20
11.26759179581796
 11
1.3284255469985087
 21
11.238333362808358
  0
LINE
  8
_0-0_
  6
CONTINUOUS
 62
    7
 10
1.3284255469985087
 20
11.238333362808358
 11
1.8423344398111599
 21
11.1938569200322
  0
LINE
  8
_0-0_
  6
CONTINUOUS
 62
    7
 10
1.8423344398111599
 20
11.1938569200322
 11
2.3525236710935848
 21
11.130359133816054
  0
LINE
  8
_0-0_
  6
CONTINUOUS
 62
    7
 10
2.3525236710935848
 20
11.130359133816054
 11
2.858054692057741
 21
11.04403667048663
  0
LINE
  8
_0-0_
  6
CONTINUOUS
 62
    7
 10
2.858054692057741
 20
11.04403667048663
 11
3.1487584552221426
 21
10.9820126634616
  0
LINE
  8
_0-0_
  6
CONTINUOUS
 62
    7
 10
3.1487584552221426
 20
10.9820126634616
 11
3.2903174965078028
 21
10.948226313822826
  0
LINE
  8
_0-0_
  6
CONTINUOUS
 62
    7
 10
3.2903174965078028
 20
10.948226313822826
 11
3.5334533172961278
 21
10.88532388960601
  0
LINE
  8
_0-0_
  6
CONTINUOUS
 62
    7
 10
3.5334533172961278
 20
10.88532388960601
 11
3.7757588712248582
 21
10.817755030928563
  0
LINE
  8
_0-0_
  6
CONTINUOUS
 62
    7
 10
3.7757588712248582
 20
10.817755030928563
 11
4.0176397823063246
 21
10.746938068714197
  0
LINE
  8
_0-0_
  6
CONTINUOUS
 62
    7
 10
4.0176397823063246
 20
10.746938068714197
 11
4.2595016745529426
 21
10.674291333886625
  0
LINE
  8
_0-0_
  6
CONTINUOUS
 62
    7
 10
4.2595016745529426
 20
10.674291333886625
 11
4.5017501719770143
 21
10.60123315736956
  0
LINE
  8
_0-0_
  6
CONTINUOUS
 62
    7
 10
4.5017501719770143
 20
10.60123315736956
 11
4.64259127992863
 21
10.559229788544652
  0
LINE
  8
_0-0_
  6
CONTINUOUS
 62
    7
 10
4.64259127992863
 20
10.559229788544652
 11
4.7949610830176175
 21
10.514420715324601
  0
LINE
  8
_0-0_
  6
CONTINUOUS
 62
    7
 10
4.7949610830176175
 20
10.514420715324601
 11
5.0577229652887956
 21
10.437014827160962
  0
LINE
  8
_0-0_
  6
CONTINUOUS
 62
    7
 10
5.0577229652887956
 20
10.437014827160962
 11
5.3192081840313596
 21
10.356648593393341
  0
LINE
  8
_0-0_
  6
CONTINUOUS
 62
    7
 10
5.3192081840313596
 20
10.356648593393341
 11
5.5778508142985492
 21
10.270098864688972
  0
LINE
  8
_0-0_
  6
CONTINUOUS
 62
    7
 10
5.5778508142985492
 20
10.270098864688972
 11
5.8320849311436893
 21
10.174142491715084
  0
LINE
  8
_0-0_
  6
CONTINUOUS
 62
    7
 10
5.8320849311436893
 20
10.174142491715084
 11
6.0803446096199627
 21
10.065556325138967
  0
LINE
  8
_0-0_
  6
CONTINUOUS
 62
    7
 10
6.0803446096199627
 20
10.065556325138967
 11
6.2209806796185125
 21
9.9955192886553981
  0
LINE
  8
_0-0_
  6
CONTINUOUS
 62
    7
 10
6.2209806796185125
 20
9.9955192886553981
 11
6.2753935121819699
 21
9.9664762004152827
  0
LINE
  8
_0-0_
  6
CONTINUOUS
 62
    7
 10
6.2753935121819699
 20
9.9664762004152827
 11
6.3683019299895056
 21
9.9144997211510848
  0
LINE
  8
_0-0_
  6
CONTINUOUS
 62
    7
 10
6.3683019299895056
 20
9.9144997211510848
 11
6.4602439495200121
 21
9.8604960577577536
  0
LINE
  8
_0-0_
  6
CONTINUOUS
 62
    7
 10
6.4602439495200121
 20
9.8604960577577536
 11
6.5514305747640469
 21
9.8049078268573986
  0
LINE
  8
_0-0_
  6
CONTINUOUS
 62
    7
 10
6.5514305747640469
 20
9.8049078268573986
 11
6.642072809712281
 21
9.7481776450721007
  0
LINE
  8
_0-0_
  6
CONTINUOUS
 62
    7
 10
6.642072809712281
 20
9.7481776450721007
 11
6.7323816583553286
 21
9.6907481290239126
  0
LINE
  8
_0-0_
  6
CONTINUOUS
 62
    7
 10
6.7323816583553286
 20
9.6907481290239126
 11
6.7846911795077665
 21
9.6572929887218457
  0
LINE
  8
_0-0_
  6
CONTINUOUS
 62
    7
 10
6.3683019299895056
 20
9.9144997211510848
 11
6.3619083045908473
 21
7.3742654641704171
  0
LINE
  8
_0-0_
  6
CONTINUOUS
 62
    7
 10
1.260328280593163
 20
10.390116638577862
 11
2.4723058553550379
 21
10.390116638577862
  0
LINE
  8
_0-0_
  6
CONTINUOUS
 62
    7
 10
2.4723058553550379
 20
10.390116638577862
 11
2.6414190053218283
 21
1.9908301902281205
  0
LINE
  8
_0-0_
  6
CONTINUOUS
 62
    7
 10
-2.8829438935927749
 20
9.7418495637052409
 11
-3.1084280935484765
 21
1.9062736152447395
  0
LINE
  8
_0-0_
  6
CONTINUOUS
 62
    7
 10
-2.9675004685761701
 20
3.3155498649678461
 11
-0.4589887440690259
 21
3.1182511900066143
  0
LINE
  8
_0-0_
  6
CONTINUOUS
 62
    7
 10
-0.4589887440690259
 20
3.1182511900066143
 11
-0.4308032190745703
 21
1.9626446652336649
  0
LINE
  8
_0-0_
  6
CONTINUOUS
 62
    7
 10
-2.5447175936592226
 20
3.2309932899844651
 11
-2.6010886436481622
 21
1.9908301902281205
  0
LINE
  8
_0-0_
  6
CONTINUOUS
 62
    7
 10
-0.7690295190081226
 20
3.0336946150232191
 11
-0.8254005689970338
 21
2.0190157152225905
  0
LINE
  8
_0-0_
  6
CONTINUOUS
 62
    7
 10
-3.1084280935484765
 20
10.812899513494809
 11
-3.0802425685540209
 21
10.080075863638793
  0
LINE
  8
_0-0_
  6
CONTINUOUS
 62
    7
 10
-3.0802425685540209
 20
10.080075863638793
 11
-0.0362058691521067
 21
10.16463243862216
  0
LINE
  8
_0-0_
  6
CONTINUOUS
 62
    7
 10
-3.1084280935484765
 20
10.812899513494809
 11
-0.0080203441576227
 21
10.86927056348372
  0
LINE
  8
_0-0_
  6
CONTINUOUS
 62
    7
 10
0.0201651808368328
 20
11.151125813428333
 11
0.1610928058091392
 21
2.1317578152004271
  0
LINE
  8
_0-0_
  6
CONTINUOUS
 62
    7
 10
-4.7575952499493406
 20
17.053726763849848
 11
-5.1495747433066663
 21
11.132933882221717
  0
LINE
  8
_0-0_
  6
CONTINUOUS
 62
    7
 10
4.6291866990395567
 20
17.200780725934006
 11
5.2058828866651004
 21
10.957417651205272
  0
LINE
  8
_0-0_
  6
CONTINUOUS
 62
    7
 10
5.2058828866651004
 20
18.078361881016345
 11
5.2560303812412519
 21
17.576886935255001
  0
ARC
  8
_0-0_
  6
CONTINUOUS
 62
    7
 10
-2.6243445470371194
 20
17.892633204734633
 40
2.6415663941005803
 50
186.31750260016082
 51
214.74309476644504
  0
ARC
  8
_0-0_
  6
CONTINUOUS
 62
    7
 10
3.435449677009891
 20
17.5420762405119
 40
1.8209134754534846
 50
313.780030092603
 51
1.0953993283358052
  0
ARC
  8
_0-0_
  6
CONTINUOUS
 62
    7
 10
4.3932806038486865
 20
18.7124773067797
 40
1.2224625575897519
 50
313.50024910452805
 51
349.27883156353948
  0
ARC
  8
_0-0_
  6
CONTINUOUS
 62
    7
 10
-5.0247257358381114
 20
18.860678542124329
 40
0.5380733757474
 50
190.2667888327083
 51
247.05282767547527
  0
LINE
  8
_0-0_
  6
CONTINUOUS
 62
    7
 10
-5.5541837574302884
 20
18.764776711798188
 11
-5.4585690597965959
 21
19.198236661125431
  0
LINE
  8
_0-0_
  6
CONTINUOUS
 62
    7
 10
-5.4585690597965959
 20
19.198236661125431
 11
-5.1964874673179873
 21
19.614276670046049
  0
LINE
  8
_0-0_
  6
CONTINUOUS
 62
    7
 10
-5.1964874673179873
 20
19.614276670046049
 11
-4.7759021965622219
 21
20.000255573415441
  0
LINE
  8
_0-0_
  6
CONTINUOUS
 62
    7
 10
-4.7759021965622219
 20
20.000255573415441
 11
-4.2095925181548148
 21
20.344445597569457
  0
LINE
  8
_0-0_
  6
CONTINUOUS
 62
    7
 10
-4.2095925181548148
 20
20.344445597569457
 11
-3.5147654651076516
 21
20.636388702792711
  0
LINE
  8
_0-0_
  6
CONTINUOUS
 62
    7
 10
-3.5147654651076516
 20
20.636388702792711
 11
-2.7125330058281145
 21
20.867214345563351
  0
LINE
  8
_0-0_
  6
CONTINUOUS
 62
    7
 10
-2.7125330058281145
 20
20.867214345563351
 11
-1.8272705676421961
 21
21.029909005529188
  0
LINE
  8
_0-0_
  6
CONTINUOUS
 62
    7
 10
-1.8272705676421961
 20
21.029909005529188
 11
-0.885876401769772
 21
21.119529287774636
  0
LINE
  8
_0-0_
  6
CONTINUOUS
 62
    7
 10
-0.885876401769772
 20
21.119529287774636
 11
0.0830457064275467
 21
21.133352125373758
  0
LINE
  8
_0-0_
  6
CONTINUOUS
 62
    7
 10
0.0830457064275467
 20
21.133352125373758
 11
1.0500555489904488
 21
21.070957518400743
  0
LINE
  8
_0-0_
  6
CONTINUOUS
 62
    7
 10
1.0500555489904488
 20
21.070957518400743
 11
1.9857710211832316
 21
20.934241295415287
  0
LINE
  8
_0-0_
  6
CONTINUOUS
 62
    7
 10
1.9857710211832316
 20
20.934241295415287
 11
2.8617608818782321
 21
20.727357509671062
  0
LINE
  8
_0-0_
  6
CONTINUOUS
 62
    7
 10
2.8617608818782321
 20
20.727357509671062
 11
3.6514086224304299
 21
20.456592220309656
  0
LINE
  8
_0-0_
  6
CONTINUOUS
 62
    7
 10
3.6514086224304299
 20
20.456592220309656
 11
4.3307211958242169
 21
20.130172493634486
  0
LINE
  8
_0-0_
  6
CONTINUOUS
 62
    7
 10
4.3307211958242169
 20
20.130172493634486
 11
4.8790580332657987
 21
19.758016427864217
  0
LINE
  8
_0-0_
  6
CONTINUOUS
 62
    7
 10
4.8790580332657987
 20
19.758016427864217
 11
5.2797581974212937
 21
19.351431796737184
  0
LINE
  8
_0-0_
  6
CONTINUOUS
 62
    7
 10
5.2797581974212937
 20
19.351431796737184
 11
5.5206466165669132
 21
18.922772468528475
  0
LINE
  8
_0-0_
  6
CONTINUOUS
 62
    7
 10
5.5206466165669132
 20
18.922772468528475
 11
5.594404017982348
 21
18.485063040013639
  0
LINE
  8
_0-0_
  6
CONTINUOUS
 62
    7
 10
-5.5941428533994975
 20
20.542956482428533
 11
-5.5008700089320337
 21
20.976871733097308
  0
LINE
  8
_0-0_
  6
CONTINUOUS
 62
    7
 10
-5.5008700089320337
 20
20.976871733097308
 11
-5.2410591135962159
 21
21.394263811941666
  0
LINE
  8
_0-0_
  6
CONTINUOUS
 62
    7
 10
-5.2410591135962159
 20
21.394263811941666
 11
-4.8226043899761999
 21
21.782450471856517
  0
LINE
  8
_0-0_
  6
CONTINUOUS
 62
    7
 10
-4.8226043899761999
 20
21.782450471856517
 11
-4.2582203731008486
 21
22.129636857612265
  0
LINE
  8
_0-0_
  6
CONTINUOUS
 62
    7
 10
-4.2582203731008486
 20
22.129636857612265
 11
-3.5650555857308257
 21
22.425273886562504
  0
LINE
  8
_0-0_
  6
CONTINUOUS
 62
    7
 10
-3.5650555857308257
 20
22.425273886562504
 11
-2.764171489172079
 21
22.660378777182128
  0
LINE
  8
_0-0_
  6
CONTINUOUS
 62
    7
 10
-2.764171489172079
 20
22.660378777182128
 11
-1.8799025414316273
 21
22.827807986338538
  0
LINE
  8
_0-0_
  6
CONTINUOUS
 62
    7
 10
-1.8799025414316273
 20
22.827807986338538
 11
-0.9391168070249105
 21
22.922474262234712
  0
LINE
  8
_0-0_
  6
CONTINUOUS
 62
    7
 10
-0.9391168070249105
 20
22.922474262234712
 11
0.029600415568743
 21
22.941501217980996
  0
LINE
  8
_0-0_
  6
CONTINUOUS
 62
    7
 10
0.029600415568743
 20
22.941501217980996
 11
0.9968151437353103
 21
22.884310729155199
  0
LINE
  8
_0-0_
  6
CONTINUOUS
 62
    7
 10
0.9968151437353103
 20
22.884310729155199
 11
1.933139047393772
 21
22.752640499820441
  0
LINE
  8
_0-0_
  6
CONTINUOUS
 62
    7
 10
1.933139047393772
 20
22.752640499820441
 11
2.8101223985342108
 21
22.55049126326676
  0
LINE
  8
_0-0_
  6
CONTINUOUS
 62
    7
 10
2.8101223985342108
 20
22.55049126326676
 11
3.6011185018071989
 21
22.284005221754395
  0
LINE
  8
_0-0_
  6
CONTINUOUS
 62
    7
 10
3.6011185018071989
 20
22.284005221754395
 11
4.2820933408781547
 21
21.96127941880621
  0
LINE
  8
_0-0_
  6
CONTINUOUS
 62
    7
 10
4.2820933408781547
 20
21.96127941880621
 11
4.8323558398517639
 21
21.592119714637672
  0
LINE
  8
_0-0_
  6
CONTINUOUS
 62
    7
 10
4.8323558398517639
 20
21.592119714637672
 11
5.2351865511429798
 21
21.187742840056099
  0
LINE
  8
_0-0_
  6
CONTINUOUS
 62
    7
 10
5.2351865511429798
 20
21.187742840056099
 11
5.478345667431447
 21
20.76043558177113
  0
LINE
  8
_0-0_
  6
CONTINUOUS
 62
    7
 10
5.478345667431447
 20
20.76043558177113
 11
5.5544449220131389
 21
20.323181454597798
  0
LINE
  8
_0-0_
  6
CONTINUOUS
 62
    7
 10
-4.5352268102151436
 20
22.780665856704896
 11
-5.074674605799637
 21
22.780665856704896
  0
LINE
  8
_0-0_
  6
CONTINUOUS
 62
    7
 10
-5.074674605799637
 20
22.780665856704896
 11
-5.074674605799637
 21
21.581892977628254
  0
LINE
  8
_0-0_
  6
CONTINUOUS
 62
    7
 10
-4.0557176585844923
 20
23.539888680120097
 11
-4.0956767545537298
 21
22.201258965151165
  0
LINE
  8
_0-0_
  6
CONTINUOUS
 62
    7
 10
-2.5572515597387246
 20
24.239172859581455
 11
-2.6371697516771713
 21
22.760686308720263
  0
LINE
  8
_0-0_
  6
CONTINUOUS
 62
    7
 10
-0.8190308850776173
 20
24.59880472330445
 11
-0.8190308850776173
 21
23.040399980504812
  0
LINE
  8
_0-0_
  6
CONTINUOUS
 62
    7
 10
1.0190875295065414
 20
24.418988791442924
 11
0.9991079815219368
 21
22.980461336550999
  0
LINE
  8
_0-0_
  6
CONTINUOUS
 62
    7
 10
2.8172468481214912
 20
24.099316023689166
 11
2.8172468481214912
 21
22.620829472828003
  0
LINE
  8
_0-0_
  6
CONTINUOUS
 62
    7
 10
4.135897015105761
 20
23.380052296243203
 11
4.1758561110749985
 21
22.121340773212747
  0
LINE
  8
_0-0_
  6
CONTINUOUS
 62
    7
 10
5.1348744143363012
 20
22.540911280889556
 11
5.1948130582901149
 21
21.322158853828338
  0
LINE
  8
_0-0_
  6
CONTINUOUS
 62
    7
 10
4.7153039066594635
 20
22.660788568797212
 11
5.1348744143363012
 21
22.540911280889556
  0
LINE
  8
_0-0_
  6
CONTINUOUS
 62
    7
 10
5.5544449220131105
 20
20.323181454597769
 11
5.5944040179823764
 21
18.485063040013639
  0
LINE
  8
_0-0_
  6
CONTINUOUS
 62
    7
 10
-5.594142853399469
 20
20.542956482428504
 11
-5.5741633054148929
 21
18.72481761582895
  0
LINE
  8
_0-0_
  6
CONTINUOUS
 62
    7
 10
-4.5352268102151436
 20
22.780665856704896
 11
-4.468538602267679
 21
22.849718961932634
  0
LINE
  8
_0-0_
  6
CONTINUOUS
 62
    7
 10
-4.468538602267679
 20
22.849718961932634
 11
-4.3531027322032196
 21
22.968273599097014
  0
LINE
  8
_0-0_
  6
CONTINUOUS
 62
    7
 10
-4.3531027322032196
 20
22.968273599097014
 11
-4.2363996366123979
 21
23.085432567332358
  0
LINE
  8
_0-0_
  6
CONTINUOUS
 62
    7
 10
-4.2363996366123979
 20
23.085432567332358
 11
-4.1176272740227455
 21
23.200312531873433
  0
LINE
  8
_0-0_
  6
CONTINUOUS
 62
    7
 10
-4.1176272740227455
 20
23.200312531873433
 11
-3.9959836029619362
 21
23.312030157954975
  0
LINE
  8
_0-0_
  6
CONTINUOUS
 62
    7
 10
-3.9959836029619362
 20
23.312030157954975
 11
-3.8706665819575585
 21
23.41970211081178
  0
LINE
  8
_0-0_
  6
CONTINUOUS
 62
    7
 10
-3.8706665819575585
 20
23.41970211081178
 11
-3.7959835347845763
 21
23.479950036166255
  0
LINE
  8
_0-0_
  6
CONTINUOUS
 62
    7
 10
-3.7959835347845763
 20
23.479950036166255
 11
-3.7282258603662592
 21
23.531981695937301
  0
LINE
  8
_0-0_
  6
CONTINUOUS
 62
    7
 10
-3.7282258603662592
 20
23.531981695937301
 11
-3.6084287494894705
 21
23.618011782455707
  0
LINE
  8
_0-0_
  6
CONTINUOUS
 62
    7
 10
-3.6084287494894705
 20
23.618011782455707
 11
-3.4850354865089139
 21
23.698956923693739
  0
LINE
  8
_0-0_
  6
CONTINUOUS
 62
    7
 10
-3.4850354865089139
 20
23.698956923693739
 11
-3.3582412055599855
 21
23.774320453381076
  0
LINE
  8
_0-0_
  6
CONTINUOUS
 62
    7
 10
-3.3582412055599855
 20
23.774320453381076
 11
-3.2282410407779674
 21
23.843605705247423
  0
LINE
  8
_0-0_
  6
CONTINUOUS
 62
    7
 10
-3.2282410407779674
 20
23.843605705247423
 11
-3.0952301262982269
 21
23.906316013022487
  0
LINE
  8
_0-0_
  6
CONTINUOUS
 62
    7
 10
-3.0952301262982269
 20
23.906316013022487
 11
-3.0167811633847714
 21
23.939479639812301
  0
LINE
  8
_0-0_
  6
CONTINUOUS
 62
    7
 10
-3.0167811633847714
 20
23.939479639812301
 11
-2.9227488611091781
 21
23.975603583045906
  0
LINE
  8
_0-0_
  6
CONTINUOUS
 62
    7
 10
-2.9227488611091781
 20
23.975603583045906
 11
-2.7579981414075201
 21
24.030523675325664
  0
LINE
  8
_0-0_
  6
CONTINUOUS
 62
    7
 10
-2.7579981414075201
 20
24.030523675325664
 11
-2.5904766091684417
 21
24.077312068094269
  0
LINE
  8
_0-0_
  6
CONTINUOUS
 62
    7
 10
-2.5904766091684417
 20
24.077312068094269
 11
-2.4208276537076552
 21
24.117350165317017
  0
LINE
  8
_0-0_
  6
CONTINUOUS
 62
    7
 10
-2.4208276537076552
 20
24.117350165317017
 11
-2.2496946643410434
 21
24.152019370959291
  0
LINE
  8
_0-0_
  6
CONTINUOUS
 62
    7
 10
-2.2496946643410434
 20
24.152019370959291
 11
-2.0777210303843754
 21
24.182701088986416
  0
LINE
  8
_0-0_
  6
CONTINUOUS
 62
    7
 10
-2.0777210303843754
 20
24.182701088986416
 11
-1.9778446681850224
 21
24.199213763612217
  0
LINE
  8
_0-0_
  6
CONTINUOUS
 62
    7
 10
-1.9778446681850224
 20
24.199213763612217
 11
-1.8390016480239606
 21
24.221113159955902
  0
LINE
  8
_0-0_
  6
CONTINUOUS
 62
    7
 10
-1.8390016480239606
 20
24.221113159955902
 11
-1.599742658360108
 21
24.256219308183201
  0
LINE
  8
_0-0_
  6
CONTINUOUS
 62
    7
 10
-1.599742658360108
 20
24.256219308183201
 11
-1.3604259488913126
 21
24.28813018062095
  0
LINE
  8
_0-0_
  6
CONTINUOUS
 62
    7
 10
-1.3604259488913126
 20
24.28813018062095
 11
-1.1207996407522185
 21
24.317032948010759
  0
LINE
  8
_0-0_
  6
CONTINUOUS
 62
    7
 10
-1.1207996407522185
 20
24.317032948010759
 11
-0.8806118550774126
 21
24.343114781094268
  0
LINE
  8
_0-0_
  6
CONTINUOUS
 62
    7
 10
-0.8806118550774126
 20
24.343114781094268
 11
-0.6396107130015107
 21
24.366562850613089
  0
LINE
  8
_0-0_
  6
CONTINUOUS
 62
    7
 10
-0.6396107130015107
 20
24.366562850613089
 11
-0.4993581173238308
 21
24.379029695473715
  0
LINE
  8
_0-0_
  6
CONTINUOUS
 62
    7
 10
-0.4993581173238308
 20
24.379029695473715
 11
-0.3824200140193252
 21
24.388730950153668
  0
LINE
  8
_0-0_
  6
CONTINUOUS
 62
    7
 10
-0.3824200140193252
 20
24.388730950153668
 11
-0.1804003781624967
 21
24.403071230654913
  0
LINE
  8
_0-0_
  6
CONTINUOUS
 62
    7
 10
-0.1804003781624967
 20
24.403071230654913
 11
0.021735673933583
 21
24.412715465102078
  0
LINE
  8
_0-0_
  6
CONTINUOUS
 62
    7
 10
0.021735673933583
 20
24.412715465102078
 11
0.2235314929645173
 21
24.415715087537361
  0
LINE
  8
_0-0_
  6
CONTINUOUS
 62
    7
 10
0.2235314929645173
 20
24.415715087537361
 11
0.4245304296260232
 21
24.410121532003128
  0
LINE
  8
_0-0_
  6
CONTINUOUS
 62
    7
 10
0.4245304296260232
 20
24.410121532003128
 11
0.6242758346137324
 21
24.393986232541632
  0
LINE
  8
_0-0_
  6
CONTINUOUS
 62
    7
 10
0.6242758346137324
 20
24.393986232541632
 11
0.7393738577219923
 21
24.379029695473715
  0
LINE
  8
_0-0_
  6
CONTINUOUS
 62
    7
 10
0.7393738577219923
 20
24.379029695473715
 11
0.8209441249987807
 21
24.365683123770022
  0
LINE
  8
_0-0_
  6
CONTINUOUS
 62
    7
 10
0.8209441249987807
 20
24.365683123770022
 11
0.9609387051564144
 21
24.338109451029052
  0
LINE
  8
_0-0_
  6
CONTINUOUS
 62
    7
 10
0.9609387051564144
 20
24.338109451029052
 11
1.1003410257823336
 21
24.306111329386166
  0
LINE
  8
_0-0_
  6
CONTINUOUS
 62
    7
 10
1.1003410257823336
 20
24.306111329386166
 11
1.2394100310461542
 21
24.271259302828522
  0
LINE
  8
_0-0_
  6
CONTINUOUS
 62
    7
 10
1.2394100310461542
 20
24.271259302828522
 11
1.3784046651175206
 21
24.235123915343248
  0
LINE
  8
_0-0_
  6
CONTINUOUS
 62
    7
 10
1.3784046651175206
 20
24.235123915343248
 11
1.5175838721660486
 21
24.199275710917444
  0
LINE
  8
_0-0_
  6
CONTINUOUS
 62
    7
 10
1.5175838721660486
 20
24.199275710917444
 11
1.5984944210602439
 21
24.179234215627613
  0
LINE
  8
_0-0_
  6
CONTINUOUS
 62
    7
 10
1.5984944210602439
 20
24.179234215627613
 11
1.7139303568939599
 21
24.152158726368636
  0
LINE
  8
_0-0_
  6
CONTINUOUS
 62
    7
 10
1.7139303568939599
 20
24.152158726368636
 11
1.9134962116450456
 21
24.108307274450166
  0
LINE
  8
_0-0_
  6
CONTINUOUS
 62
    7
 10
1.9134962116450456
 20
24.108307274450166
 11
2.1131218044984825
 21
24.065622693256099
  0
LINE
  8
_0-0_
  6
CONTINUOUS
 62
    7
 10
2.1131218044984825
 20
24.065622693256099
 11
2.3120841650760644
 21
24.021295741924032
  0
LINE
  8
_0-0_
  6
CONTINUOUS
 62
    7
 10
2.3120841650760644
 20
24.021295741924032
 11
2.5096603229996992
 21
23.972517179591417
  0
LINE
  8
_0-0_
  6
CONTINUOUS
 62
    7
 10
2.5096603229996992
 20
23.972517179591417
 11
2.7051273078911811
 21
23.91647776539585
  0
LINE
  8
_0-0_
  6
CONTINUOUS
 62
    7
 10
2.7051273078911811
 20
23.91647776539585
 11
2.8172468481214912
 21
23.879540995858459
  0
LINE
  8
_0-0_
  6
CONTINUOUS
 62
    7
 10
2.8172468481214912
 20
23.879540995858459
 11
2.9146370655458247
 21
23.843994140829945
  0
LINE
  8
_0-0_
  6
CONTINUOUS
 62
    7
 10
2.9146370655458247
 20
23.843994140829945
 11
3.0800998808286613
 21
23.775493856188344
  0
LINE
  8
_0-0_
  6
CONTINUOUS
 62
    7
 10
3.0800998808286613
 20
23.775493856188344
 11
3.2417384944070227
 21
23.697699613684616
  0
LINE
  8
_0-0_
  6
CONTINUOUS
 62
    7
 10
3.2417384944070227
 20
23.697699613684616
 11
3.3987142741695981
 21
23.610420622690068
  0
LINE
  8
_0-0_
  6
CONTINUOUS
 62
    7
 10
3.3987142741695981
 20
23.610420622690068
 11
3.5501885880051054
 21
23.513466092575921
  0
LINE
  8
_0-0_
  6
CONTINUOUS
 62
    7
 10
3.5501885880051054
 20
23.513466092575921
 11
3.6953228038022905
 21
23.406645232713597
  0
LINE
  8
_0-0_
  6
CONTINUOUS
 62
    7
 10
3.6953228038022905
 20
23.406645232713597
 11
3.7762651513827938
 21
23.340093200273994
  0
LINE
  8
_0-0_
  6
CONTINUOUS
 62
    7
 10
3.7762651513827938
 20
23.340093200273994
 11
3.8412330971046265
 21
23.282719769370001
  0
LINE
  8
_0-0_
  6
CONTINUOUS
 62
    7
 10
3.8412330971046265
 20
23.282719769370001
 11
3.9505805797961591
 21
23.18052302659407
  0
LINE
  8
_0-0_
  6
CONTINUOUS
 62
    7
 10
3.9505805797961591
 20
23.18052302659407
 11
4.0587584454652506
 21
23.077496161791199
  0
LINE
  8
_0-0_
  6
CONTINUOUS
 62
    7
 10
4.0587584454652506
 20
23.077496161791199
 11
4.1683310440988555
 21
22.977497340871675
  0
LINE
  8
_0-0_
  6
CONTINUOUS
 62
    7
 10
4.1683310440988555
 20
22.977497340871675
 11
4.2818627256838431
 21
22.884384729745843
  0
LINE
  8
_0-0_
  6
CONTINUOUS
 62
    7
 10
4.2818627256838431
 20
22.884384729745843
 11
4.4019178402071963
 21
22.802016494324047
  0
LINE
  8
_0-0_
  6
CONTINUOUS
 62
    7
 10
4.4019178402071963
 20
22.802016494324047
 11
4.4755493308441521
 21
22.760686308720263
  0
LINE
  8
_0-0_
  6
CONTINUOUS
 62
    7
 10
4.4755493308441521
 20
22.760686308720263
 11
4.4972343434465563
 21
22.749864219937759
  0
LINE
  8
_0-0_
  6
CONTINUOUS
 62
    7
 10
4.4972343434465563
 20
22.749864219937759
 11
4.5352258088794803
 21
22.732166507097073
  0
LINE
  8
_0-0_
  6
CONTINUOUS
 62
    7
 10
4.5352258088794803
 20
22.732166507097073
 11
4.5738604444606983
 21
22.715493007543838
  0
LINE
  8
_0-0_
  6
CONTINUOUS
 62
    7
 10
4.5738604444606983
 20
22.715493007543838
 11
4.612997820026826
 21
22.699620093922729
  0
LINE
  8
_0-0_
  6
CONTINUOUS
 62
    7
 10
4.612997820026826
 20
22.699620093922729
 11
4.6524975054144795
 21
22.684324138878392
  0
LINE
  8
_0-0_
  6
CONTINUOUS
 62
    7
 10
4.6524975054144795
 20
22.684324138878392
 11
4.6922190704602746
 21
22.669381515055473
  0
LINE
  8
_0-0_
  6
CONTINUOUS
 62
    7
 10
4.6922190704602746
 20
22.669381515055473
 11
4.7153039066594635
 21
22.660788568797212
  0
LINE
  8
_0-0_
  6
CONTINUOUS
 62
    7
 10
-4.0557176585844923
 20
23.539888680120097
 11
-3.7560244388153388
 21
23.579847776089306
  0
ARC
  8
_0-0_
  6
CONTINUOUS
 62
    7
 10
0.0033911335250056
 20
18.78655996897589
 40
6.341040246452363
 50
46.158268609038096
 51
128.63660698596215
  0
ARC
  8
_0-0_
  6
CONTINUOUS
 62
    7
 10
-0.1169282378720393
 20
19.491254099515682
 40
6.2522978318039435
 50
44.065220515420528
 51
128.57830204059269
  0
ARC
  8
_0-0_
  6
CONTINUOUS
 62
    7
 10
0.1768789358326248
 20
20.035554292742059
 40
6.4359263633175052
 50
48.806449371171496
 51
130.65046673745945
  0
ARC
  8
_0-0_
  6
CONTINUOUS
 62
    7
 10
0.1764208740992134
 20
20.810909271071548
 40
6.3237303599562518
 50
51.466627992933077
 51
130.80221526902116
  0
ARC
  8
_0-0_
  6
CONTINUOUS
 62
    7
 10
0.1166892621863471
 20
22.839475664685093
 40
5.1937221986381559
 50
39.98924440329192
 51
141.99605424988491
  0
LINE
  8
_0-0_
  6
CONTINUOUS
 62
    7
 10
4.0959379191365519
 20
26.177189014088636
 11
4.1159174671211565
 21
25.757618506411855
  0
LINE
  8
_0-0_
  6
CONTINUOUS
 62
    7
 10
4.1159174671211565
 20
25.757618506411855
 11
4.1159174671211565
 21
25.138252518888915
  0
LINE
  8
_0-0_
  6
CONTINUOUS
 62
    7
 10
4.41561068689031
 20
24.878518395088971
 11
4.3756515909211009
 21
23.83958189988925
  0
LINE
  8
_0-0_
  6
CONTINUOUS
 62
    7
 10
4.3756515909211009
 20
23.839581899889222
 11
4.3756515909211009
 21
22.860584048643315
  0
LINE
  8
_0-0_
  6
CONTINUOUS
 62
    7
 10
-3.9757994666460457
 20
26.037332178196376
 11
-3.9558199186614411
 21
25.597782122534962
  0
LINE
  8
_0-0_
  6
CONTINUOUS
 62
    7
 10
-3.9558199186614411
 20
25.597782122534934
 11
-4.0157585626152832
 21
24.91847749105818
  0
LINE
  8
_0-0_
  6
CONTINUOUS
 62
    7
 10
-4.0157585626152832
 20
24.91847749105818
 11
-4.0157585626152832
 21
24.379029695473715
  0
LINE
  8
_0-0_
  6
CONTINUOUS
 62
    7
 10
-4.0157585626152832
 20
24.379029695473715
 11
-3.9558199186614411
 21
23.420011392212412
  0
ARC
  8
_0-0_
  6
CONTINUOUS
 62
    7
 10
-16.056304824836396
 20
-6.4192091642584366
 40
1.6453173636692586
 50
203.86420615049323
 51
334.83367308904752
  0
ARC
  8
_0-0_
  6
CONTINUOUS
 62
    7
 10
-12.493852044189063
 20
-7.9172938985196772
 40
1.502893940399197
 50
185.8872198208152
 51
289.92759752171673
  0
ARC
  8
_0-0_
  6
CONTINUOUS
 62
    7
 10
-12.435510917788102
 20
-8.0568991338804672
 40
1.3517826789435874
 50
289.61962802842106
 51
8.0617629548906695
  0
ARC
  8
_0-0_
  6
CONTINUOUS
 62
    7
 10
-17.646009810944413
 20
-7.9698453256415327
 40
1.5715919062692951
 50
189.9555502747321
 51
283.13783081712228
  0
ARC
  8
_0-0_
  6
CONTINUOUS
 62
    7
 10
-17.646009810944413
 20
-8.0204161560541714
 40
1.5223881053998254
 50
283.57043438516189
 51
346.42956561483885
  0
ARC
  8
_0-0_
  6
CONTINUOUS
 62
    7
 10
-18.791201732181015
 20
-9.9106802994689112
 40
1.4271551443487165
 50
175.81319987348499
 51
282.61515717198364
  0
ARC
  8
_0-0_
  6
CONTINUOUS
 62
    7
 10
-18.877595255747089
 20
-9.8704235327081626
 40
1.4872269801408253
 50
285.5256718695577
 51
358.53112060834047
  0
ARC
  8
_0-0_
  6
CONTINUOUS
 62
    7
 10
-15.138097416937351
 20
-9.669968273294959
 40
0.7996293432860304
 50
149.33638699487693
 51
281.73896858907278
  0
ARC
  8
_0-0_
  6
CONTINUOUS
 62
    7
 10
-14.717768108296818
 20
-9.4575696355059797
 40
1.0281091611775164
 50
255.48709715032101
 51
340.16109561818359
  0
ARC
  8
_0-0_
  6
CONTINUOUS
 62
    7
 10
-19.07486563751258
 20
-11.989723842594902
 40
1.2878519615949555
 50
172.14368078125796
 51
272.27091448731704
  0
ARC
  8
_0-0_
  6
CONTINUOUS
 62
    7
 10
-19.05329174001492
 20
-11.482196939122037
 40
1.7946092028593748
 50
270.94049363571997
 51
328.26840785629037
  0
ARC
  8
_0-0_
  6
CONTINUOUS
 62
    7
 10
-17.43706112976475
 20
-13.360673576738453
 40
1.3794829018935744
 50
192.14034522699521
 51
292.25673721313598
  0
ARC
  8
_0-0_
  6
CONTINUOUS
 62
    7
 10
-17.232531384941105
 20
-13.536951105515275
 40
1.1454435353230334
 50
286.11621287651082
 51
7.9449793165649538
  0
ARC
  8
_0-0_
  6
CONTINUOUS
 62
    7
 10
-15.3063497174253
 20
-10.230156259428828
 40
1.6336648097104696
 50
210.74192414670904
 51
302.39601811192853
  0
ARC
  8
_0-0_
  6
CONTINUOUS
 62
    7
 10
-14.700817188834501
 20
-10.985048993491549
 40
0.6802773439918946
 50
293.35983524606775
 51
32.157245956051689
  0
ARC
  8
_0-0_
  6
CONTINUOUS
 62
    7
 10
-15.056946345488607
 20
-12.300399892826892
 40
1.2724680605125169
 50
191.87001422838728
 51
358.93756849211258
  0
ARC
  8
_0-0_
  6
CONTINUOUS
 62
    7
 10
-15.219222930899955
 20
-15.005933530387583
 40
0.8678345553074543
 50
279.40078004101952
 51
350.59921995897855
  0
ARC
  8
_0-0_
  6
CONTINUOUS
 62
    7
 10
-13.793202135733717
 20
-14.076043230557435
 40
1.1761964121524524
 50
167.47119229084947
 51
294.34108993669139
  0
ARC
  8
_0-0_
  6
CONTINUOUS
 62
    7
 10
-13.462718475166932
 20
-13.84556452383865
 40
1.3112316944821247
 50
276.7582700128516
 51
1.0782277152830424
  0
ARC
  8
_0-0_
  6
CONTINUOUS
 62
    7
 10
-11.054848490046775
 20
-16.307905050615961
 40
1.5162378810024151
 50
202.27849649383671
 51
321.25026485774447
  0
ARC
  8
_0-0_
  6
CONTINUOUS
 62
    7
 10
-10.082452520500434
 20
-16.908929203309444
 40
0.4065205000470378
 50
301.11933041529221
 51
64.333291572522853
  0
ARC
  8
_0-0_
  6
CONTINUOUS
 62
    7
 10
-11.178057385515652
 20
-14.460328033365119
 40
1.6553197919386813
 50
211.198324314616
 51
297.3844000273528
  0
ARC
  8
_0-0_
  6
CONTINUOUS
 62
    7
 10
-13.900004717853401
 20
-15.551981487522813
 40
1.298966297192411
 50
208.32456571499014
 51
322.74111616223161
  0
ARC
  8
_0-0_
  6
CONTINUOUS
 62
    7
 10
-7.5695883570655065
 20
-17.126043970084968
 40
1.3765095440977317
 50
197.02677317493166
 51
333.82538430526637
  0
ARC
  8
_0-0_
  6
CONTINUOUS
 62
    7
 10
-8.2884257884490555
 20
-15.943309256164486
 40
1.3189358033814649
 50
194.35705057609763
 51
329.60876327659196
  0
ARC
  8
_0-0_
  6
CONTINUOUS
 62
    7
 10
-4.7864456660454175
 20
-16.067341628423836
 40
1.6733742847384665
 50
207.83572886394518
 51
317.91423843825072
  0
ARC
  8
_0-0_
  6
CONTINUOUS
 62
    7
 10
-3.4540391002527224
 20
-17.914535400669312
 40
1.0186983113455153
 50
196.83216399805232
 51
341.15766399143973
  0
ARC
  8
_0-0_
  6
CONTINUOUS
 62
    7
 10
-2.8545416270087083
 20
-18.008601571726491
 40
0.433746476275404
 50
327.2041184500398
 51
119.52272746672507
  0
ARC
  8
_0-0_
  6
CONTINUOUS
 62
    7
 10
0.7295150201803923
 20
-17.772409553837452
 40
1.268927080591014
 50
201.79470587347643
 51
341.47844820975718
  0
ARC
  8
_0-0_
  6
CONTINUOUS
 62
    7
 10
2.6301347755946756
 20
-16.382624779160384
 40
1.5276399334414936
 50
213.37156431165258
 51
326.62843568834745
  0
ARC
  8
_0-0_
  6
CONTINUOUS
 62
    7
 10
5.5638493982293857
 20
-17.116162010489749
 40
1.5012023502228762
 50
208.62258622331714
 51
325.27164874709774
  0
ARC
  8
_0-0_
  6
CONTINUOUS
 62
    7
 10
6.4627061921778397
 20
-16.247481765021892
 40
1.2824810806232294
 50
196.44573584620176
 51
341.96281704831972
  0
ARC
  8
_0-0_
  6
CONTINUOUS
 62
    7
 10
9.4245123263662745
 20
-16.942382593936617
 40
1.2304352985894806
 50
193.17965058040528
 51
351.65936785290739
  0
ARC
  8
_0-0_
  6
CONTINUOUS
 62
    7
 10
9.9251477562407242
 20
-15.271640532868592
 40
1.2405484134869056
 50
201.48652131566143
 51
351.55308218765299
  0
ARC
  8
_0-0_
  6
CONTINUOUS
 62
    7
 10
12.683156126806599
 20
-14.117353688128237
 40
1.2835051600890319
 50
197.40579401861874
 51
342.59420598138087
  0
ARC
  8
_0-0_
  6
CONTINUOUS
 62
    7
 10
13.982545519353684
 20
-15.646245622735794
 40
1.2027247532639787
 50
185.42966157440856
 51
342.98474543552766
  0
ARC
  8
_0-0_
  6
CONTINUOUS
 62
    7
 10
16.455928684747612
 20
-13.990992288499815
 40
1.3341933530278598
 50
187.32481429981513
 51
4.3872128710428884
  0
ARC
  8
_0-0_
  6
CONTINUOUS
 62
    7
 10
14.313933405997252
 20
-12.561345038251535
 40
1.2569296254515854
 50
198.99130725334908
 51
347.45773795969097
  0
ARC
  8
_0-0_
  6
CONTINUOUS
 62
    7
 10
14.901922577734998
 20
-11.020588137137072
 40
1.3238016739802909
 50
190.83165151955137
 51
346.15347696289837
  0
ARC
  8
_0-0_
  6
CONTINUOUS
 62
    7
 10
18.651865654506189
 20
-10.87246778189618
 40
1.4882025958653291
 50
202.39526627898746
 51
341.79523885026032
  0
ARC
  8
_0-0_
  6
CONTINUOUS
 62
    7
 10
18.125474677960021
 20
-9.2433250993977403
 40
1.5318646861126641
 50
210.05835483493723
 51
335.66645561728632
  0
ARC
  8
_0-0_
  6
CONTINUOUS
 62
    7
 10
13.689957179520482
 20
-9.3547896489701721
 40
1.6036643505986132
 50
198.91065841233927
 51
349.88675229765175
  0
ARC
  8
_0-0_
  6
CONTINUOUS
 62
    7
 10
16.209648099008795
 20
-7.7084191559490201
 40
1.5889474234026053
 50
211.88522503713256
 51
341.69272411174416
  0
ARC
  8
_0-0_
  6
CONTINUOUS
 62
    7
 10
13.207036412268954
 20
-6.099605570057097
 40
1.4656030779836806
 50
200.32063380709118
 51
336.81517382457946
  0
ARC
  8
_0-0_
  6
CONTINUOUS
 62
    7
 10
11.840251944052502
 20
-7.8972229143843329
 40
1.0563717979943064
 50
193.25800908357232
 51
352.37310428485006
  0
ARC
  8
_0-0_
  6
CONTINUOUS
 62
    7
 10
9.3262704887407804
 20
-6.5929361535487097
 40
1.3499189595132832
 50
199.82844589226124
 51
341.69935102959892
  0
ARC
  8
_0-0_
  6
CONTINUOUS
 62
    7
 10
9.1450369372091611
 20
-4.9869325559987097
 40
1.4742163289989236
 50
194.25003269780234
 51
345.74996730219766
  0
ARC
  8
_0-0_
  6
CONTINUOUS
 62
    7
 10
5.2588682315751134
 20
-5.8486903945299709
 40
1.4381912156958037
 50
199.82317154811241
 51
347.24141761966962
  0
ARC
  8
_0-0_
  6
CONTINUOUS
 62
    7
 10
0.9340906121850511
 20
-5.4300533132348257
 40
1.5039259156953588
 50
195.26852373287943
 51
348.72723598007451
  0
ARC
  8
_0-0_
  6
CONTINUOUS
 62
    7
 10
-3.7846550890178969
 20
-5.7578445602692234
 40
1.3967842999967481
 50
198.46865478892227
 51
359.99111769853329
  0
ARC
  8
_0-0_
  6
CONTINUOUS
 62
    7
 10
-1.7348173334818651
 20
-3.6602273667249565
 40
1.6512150338950058
 50
211.92186266170893
 51
337.38484051282717
  0
ARC
  8
_0-0_
  6
CONTINUOUS
 62
    7
 10
4.1350691371462664
 20
-4.2176109577675369
 40
1.421370229071677
 50
192.83365656358572
 51
340.01367468641951
  0
ARC
  8
_0-0_
  6
CONTINUOUS
 62
    7
 10
-6.6786408026470463
 20
-4.1488972735908511
 40
1.6440759920563612
 50
214.3960974730044
 51
339.02357614250963
  0
ARC
  8
_0-0_
  6
CONTINUOUS
 62
    7
 10
-13.956299824620723
 20
-4.7699692704752614
 40
1.8341158821200529
 50
229.58009024588728
 51
328.65563526170394
  0
LINE
  8
_0-0_
  6
CONTINUOUS
 62
    7
 10
-15.104911222287408
 20
-16.069031311622144
 11
-17.401675023543937
 21
-15.055102815110718
  0
LINE
  8
_0-0_
  6
CONTINUOUS
 62
    7
 10
-17.401675023543937
 20
-15.055102815110718
 11
-19.177843716513912
 21
-13.924291381068929
  0
LINE
  8
_0-0_
  6
CONTINUOUS
 62
    7
 10
-19.177843716513912
 20
-13.924291381068929
 11
-20.379449314246109
 21
-12.710956142701964
  0
LINE
  8
_0-0_
  6
CONTINUOUS
 62
    7
 10
-20.379449314246109
 20
-12.710956142701964
 11
-20.969981638695266
 21
-11.451963677250323
  0
LINE
  8
_0-0_
  6
CONTINUOUS
 62
    7
 10
-20.969981638695266
 20
-11.451963677250323
 11
-21.03054065253486
 21
-10.850745040683652
  0
LINE
  8
_0-0_
  6
CONTINUOUS
 62
    7
 10
-12.44569745446527
 20
-16.911657044370632
 11
-13.202294902334595
 21
-16.699018813784836
  0
LINE
  8
_0-0_
  6
CONTINUOUS
 62
    7
 10
-4.4092417502390129
 20
-18.268561031093686
 11
-6.5425300302527853
 21
-18.042520766472524
  0
LINE
  8
_0-0_
  6
CONTINUOUS
 62
    7
 10
-0.3263000981215296
 20
-18.476277703296081
 11
-2.5575170628082526
 21
-18.398265166049317
  0
LINE
  8
_0-0_
  6
CONTINUOUS
 62
    7
 10
4.69638805166172
 20
-18.34136375245949
 11
1.7878183974457815
 21
-18.472530898695556
  0
LINE
  8
_0-0_
  6
CONTINUOUS
 62
    7
 10
8.6592368093432892
 20
-17.905878523902178
 11
6.6349464836681511
 21
-18.167998276207573
  0
LINE
  8
_0-0_
  6
CONTINUOUS
 62
    7
 10
20.494347314057102
 20
-11.565869402909701
 11
20.157187629589167
 21
-12.822313426504611
  0
LINE
  8
_0-0_
  6
CONTINUOUS
 62
    7
 10
20.157187629589167
 20
-12.822313426504611
 11
19.199416017393922
 21
-14.029716688296023
  0
LINE
  8
_0-0_
  6
CONTINUOUS
 62
    7
 10
19.199416017393922
 20
-14.029716688296023
 11
17.65013388325206
 21
-15.151392851149925
  0
LINE
  8
_0-0_
  6
CONTINUOUS
 62
    7
 10
17.65013388325206
 20
-15.151392851149925
 11
15.556415380834883
 21
-16.153260352453533
  0
LINE
  8
_0-0_
  6
CONTINUOUS
 62
    7
 10
15.556415380834883
 20
-16.153260352453533
 11
14.926387612460607
 21
-16.391704498458299
  0
LINE
  8
_0-0_
  6
CONTINUOUS
 62
    7
 10
13.668015368235038
 20
-16.807114959117445
 11
10.783694352088949
 21
-17.528883366334259
  0
LINE
  8
_0-0_
  6
CONTINUOUS
 62
    7
 10
10.783694352088949
 20
-17.528883366334259
 11
10.46952520514346
 21
-17.591935599629597
  0
ENDBLK
  0
ENDSEC
  0
SECTION
  2
ENTITIES
  0
INSERT
  2
-000-1
  8
_0-0_
 10
147.48979591836732
 20
105.16836734693877
 41
1
 42
1
 50
0
  0
ENDSEC
  0
EOF
