  0
SECTION
  2
HEADER
  9
$ACADVER
  1
AC1009
  9
$INSBASE
 10
0
 20
0
 30
0
  9
$EXTMIN
 10
0
 20
0
  9
$EXTMAX
 10
297
 20
210
  9
$LIMMIN
 10
0
 20
0
  9
$LIMMAX
 10
297
 20
210
  9
$LTSCALE
 40
1
  0
ENDSEC
  0
SECTION
  2
TABLES
  0
TABLE
  2
LTYPE
 70
     9
  0
LTYPE
  2
CONTINUOUS
 70
    64
  3
実線
 72
    65
 73
     0
 40
0.0
  0
LTYPE
  2
DASHED1
 70
    64
  3
--  --  --  --  --  --  --  --  
 72
    65
 73
     2
 40
2.5
 49
1.25
 49
-1.25
  0
LTYPE
  2
DASHED2
 70
    64
  3
----    ----    ----    ----    
 72
    65
 73
     2
 40
5.0
 49
2.5
 49
-2.5
  0
LTYPE
  2
DASHED3
 70
    64
  3
------  ------  ------  ------  
 72
    65
 73
     2
 40
5.0
 49
3.75
 49
-1.25
  0
LTYPE
  2
CENTER1
 70
    64
  3
----- - ----- - ----- - ----- - 
 72
    65
 73
     4
 40
10.0
 49
6.25
 49
-1.25
 49
1.25
 49
-1.25
  0
LTYPE
  2
CENTER2
 70
    64
  3
----------  --  ----------  --  
 72
    65
 73
     4
 40
20.0
 49
12.5
 49
-2.5
 49
2.5
 49
-2.5
  0
LTYPE
  2
PHANTOM1
 70
    64
  3
--- - - --- - - --- - - --- - - 
 72
    65
 73
     6
 40
10.0
 49
3.25
 49
-1.25
 49
1.25
 49
-1.25
 49
1.25
 49
-1.25
  0
LTYPE
  2
PHANTOM2
 70
    64
  3
--------  -  -  --------  -  -  
 72
    65
 73
     6
 40
20.0
 49
10.0
 49
-2.5
 49
1.25
 49
-2.5
 49
1.25
 49
-2.5
  0
LTYPE
  2
DOT
 70
    64
  3
-   -   -   -   -   -   -   -   
 72
    65
 73
     2
 40
2.5
 49
0.625
 49
-1.875
  0
LTYPE
  2
DUMMY
 70
    64
  3
ダミー
 72
    65
 73
     0
 40
0.0
  0
LTYPE
  2
RAND1
 70
    64
  3
ランダム線1
 72
    65
 73
     4
 40
10.0
 49
1.0
 49
-2.0
 49
3.0
 49
-4.0
  0
LTYPE
  2
RAND2
 70
    64
  3
ランダム線2
 72
    65
 73
     4
 40
14.0
 49
2.0
 49
-3.0
 49
4.0
 49
-5.0
  0
LTYPE
  2
RAND3
 70
    64
  3
ランダム線3
 72
    65
 73
     4
 40
18.0
 49
3.0
 49
-4.0
 49
5.0
 49
-6.0
  0
LTYPE
  2
RAND4
 70
    64
  3
ランダム線4
 72
    65
 73
     4
 40
22.0
 49
4.0
 49
-5.0
 49
6.0
 49
-7.0
  0
LTYPE
  2
RAND5
 70
    64
  3
ランダム線5
 72
    65
 73
     4
 40
26.0
 49
5.0
 49
-6.0
 49
7.0
 49
-8.0
  0
LTYPE
  2
LONG1
 70
    64
  3
----------  --  ----------  --  
 72
    65
 73
     4
 40
40.0
 49
32.5
 49
-2.5
 49
2.5
 49
-2.5
  0
LTYPE
  2
LONG2
 70
    64
  3
--------  -  -  --------  -  -  
 72
    65
 73
     6
 40
40.0
 49
30.0
 49
-2.5
 49
1.25
 49
-2.5
 49
1.25
 49
-2.5
  0
LTYPE
  2
LONG3
 70
    64
  3
+++++++++++++++..+++++++++++++++
 72
    65
 73
     2
 40
40.0
 49
37.5
 49
-2.5
  0
LTYPE
  2
LONG4
 70
    64
  3
+++++++++++++++..+++++++++++++++
 72
    65
 73
     2
 40
80.0
 49
75.0
 49
-5.0
  0
LTYPE
  2
LONG5
 70
    64
  3
----------  --  ----------  --  
 72
    65
 73
     4
 40
60.0
 49
37.5
 49
-7.5
 49
7.5
 49
-7.5
  0
LTYPE
  2
dashed
 70
   64
  3
-------   -------------   ------
 72
   65
 73
    2
 40
7.5
 49
6
 49
-1.5
  0
LTYPE
  2
dashed_spaced
 70
   64
  3
----        --------        ----
 72
   65
 73
    2
 40
12
 49
6
 49
-6
  0
LTYPE
  2
long_dashed_dotted
 70
   64
  3
------------- --- --------------
 72
   65
 73
    4
 40
15.25
 49
12
 49
-1.5
 49
0.25
 49
-1.5
  0
LTYPE
  2
long_dashed_double-dotted
 70
   64
  3
----------- --- --- ------------
 72
   65
 73
    6
 40
17
 49
12
 49
-1.5
 49
0.25
 49
-1.5
 49
0.25
 49
-1.5
  0
LTYPE
  2
long_dashed_triplicate-dotted
 70
   64
  3
--------- --- --- --- ----------
 72
   65
 73
    8
 40
18.75
 49
12
 49
-1.5
 49
0.25
 49
-1.5
 49
0.25
 49
-1.5
 49
0.25
 49
-1.5
  0
LTYPE
  2
dotted
 70
   64
  3
   -       -       -       -    
 72
   65
 73
    2
 40
1.75
 49
0.25
 49
-1.5
  0
LTYPE
  2
chain
 70
   64
  3
-------------- -- --------------
 72
   65
 73
    4
 40
18.5
 49
12
 49
-1.5
 49
3.5
 49
-1.5
  0
LTYPE
  2
chain_double_dash
 70
   64
  3
------------ -- -- -------------
 72
   65
 73
    6
 40
23.5
 49
12
 49
-1.5
 49
3.5
 49
-1.5
 49
3.5
 49
-1.5
  0
LTYPE
  2
dashed_dotted
 70
   64
  3
-----------     -     ----------
 72
   65
 73
    4
 40
9.25
 49
6
 49
-1.5
 49
0.25
 49
-1.5
  0
LTYPE
  2
double-dashed_dotted
 70
   64
  3
------   -----------   -   -----
 72
   65
 73
    6
 40
16.75
 49
6
 49
-1.5
 49
6
 49
-1.5
 49
0.25
 49
-1.5
  0
LTYPE
  2
dashed_double-dotted
 70
   64
  3
---------    -    -    ---------
 72
   65
 73
    6
 40
11
 49
6
 49
-1.5
 49
0.25
 49
-1.5
 49
0.25
 49
-1.5
  0
LTYPE
  2
double-dashed_double-dotted
 70
   64
  3
-----   ---------   -   -   ----
 72
   65
 73
    8
 40
18.5
 49
6
 49
-1.5
 49
6
 49
-1.5
 49
0.25
 49
-1.5
 49
0.25
 49
-1.5
  0
LTYPE
  2
dashed_triplicate-dotted
 70
   64
  3
-------    -    -    -    ------
 72
   65
 73
    8
 40
12.75
 49
6
 49
-1.5
 49
0.25
 49
-1.5
 49
0.25
 49
-1.5
 49
0.25
 49
-1.5
  0
LTYPE
  2
double-dashed_triplicate-dotted
 70
   64
  3
-----  ---------  -  -  -  -----
 72
   65
 73
   10
 40
20.25
 49
6
 49
-1.5
 49
6
 49
-1.5
 49
0.25
 49
-1.5
 49
0.25
 49
-1.5
 49
0.25
 49
-1.5
  0
LTYPE
  2
undefined
 70
   64
  3
--------------------------------
 72
   65
 73
    0
 40
0
  0
LTYPE
  2
_
 70
   64
  3
                                
 72
   65
 73
    0
 40
0
  0
LTYPE
  2
__18
 70
   64
  3
                                
 72
   65
 73
    0
 40
0
  0
LTYPE
  2
__19
 70
   64
  3
                                
 72
   65
 73
    0
 40
0
  0
LTYPE
  2
__20
 70
   64
  3
                                
 72
   65
 73
    0
 40
0
  0
LTYPE
  2
__21
 70
   64
  3
                                
 72
   65
 73
    0
 40
0
  0
LTYPE
  2
__22
 70
   64
  3
                                
 72
   65
 73
    0
 40
0
  0
LTYPE
  2
__23
 70
   64
  3
                                
 72
   65
 73
    0
 40
0
  0
LTYPE
  2
__24
 70
   64
  3
                                
 72
   65
 73
    0
 40
0
  0
LTYPE
  2
__25
 70
   64
  3
                                
 72
   65
 73
    0
 40
0
  0
LTYPE
  2
__26
 70
   64
  3
                                
 72
   65
 73
    0
 40
0
  0
LTYPE
  2
__27
 70
   64
  3
                                
 72
   65
 73
    0
 40
0
  0
LTYPE
  2
__28
 70
   64
  3
                                
 72
   65
 73
    0
 40
0
  0
LTYPE
  2
__29
 70
   64
  3
                                
 72
   65
 73
    0
 40
0
  0
LTYPE
  2
__30
 70
   64
  3
                                
 72
   65
 73
    0
 40
0
  0
LTYPE
  2
__31
 70
   64
  3
                                
 72
   65
 73
    0
 40
0
  0
LTYPE
  2
__32
 70
   64
  3
                                
 72
   65
 73
    0
 40
0
  0
ENDTAB
  0
TABLE
  2
STYLE
  5
3
100
AcDbSymbolTable
 70
     1
  0
STYLE
  5
10
100
AcDbSymbolTableRecord
100
AcDbTextStyleTableRecord
  2
STANDARD
 70
     0
 40
0.0
 41
1.0
 50
0.0
 71
     0
 42
0.2
  3
txt
  4
bigfont.shx
  0
STYLE
  5
26
100
AcDbSymbolTableRecord
100
AcDbTextStyleTableRecord
  2
TATEGAKI
 70
    68
 40
0.0
 41
1.0
 50
0.0
 71
     0
 42
1.0
  3
txt
  4
bigfont.shx
  0
ENDTAB
  0
TABLE
  2
LAYER
 70
    2
  0
LAYER
  2
_0-0_
 70
   64
 62
    7
  6
CONTINUOUS
  0
LAYER
  2
ADD_LINE
 70
   64
 62
    7
  6
CONTINUOUS
  0
ENDTAB
  0
ENDSEC
  0
SECTION
  2
BLOCKS
  0
BLOCK
  2
-002-3
 70
   64
 10
0
 20
0
 30
0
  0
ARC
  8
_0-0_
  6
CONTINUOUS
 62
    7
 10
0.3895166216739767
 20
-35.114476605508273
 40
27.995064427534498
 50
74.622835996101784
 51
107.33341519239112
  0
ARC
  8
_0-0_
  6
CONTINUOUS
 62
    7
 10
6.9224711629944125
 20
-8.9869895439026735
 40
1.2417610633919682
 50
294.04990473808994
 51
44.179041152591374
  0
ARC
  8
_0-0_
  6
CONTINUOUS
 62
    7
 10
3.4057686235666154
 20
-5.600667477290159
 40
6.0510819541617176
 50
280.85032443742034
 51
311.66699467219428
  0
ARC
  8
_0-0_
  6
CONTINUOUS
 62
    7
 10
-0.2032321400318721
 20
8.1522726645107326
 40
20.260071232772436
 50
255.54756355882012
 51
283.55369754376403
  0
ARC
  8
_0-0_
  6
CONTINUOUS
 62
    7
 10
-3.2239450793787796
 20
-5.0068608050847274
 40
6.7729838423748996
 50
227.08504068942258
 51
252.50848380069192
  0
ARC
  8
_0-0_
  6
CONTINUOUS
 62
    7
 10
-6.3891369418540762
 20
-9.0688822920923542
 40
1.7028193873948338
 50
156.53160924772564
 51
211.83822300251148
  0
ARC
  8
_0-0_
  6
CONTINUOUS
 62
    7
 10
-6.7478553963389345
 20
-14.062101925715552
 40
5.7975917622098265
 50
101.97834376666006
 51
138.70815400181885
  0
ARC
  8
_0-0_
  6
CONTINUOUS
 62
    7
 10
-8.812969547235582
 20
-11.360437141931982
 40
2.5518908494142587
 50
153.86352131268285
 51
251.0219854179058
  0
ARC
  8
_0-0_
  6
CONTINUOUS
 62
    7
 10
1.2796225022764816
 20
12.434871069470788
 40
28.393403694936534
 50
247.3758925753886
 51
272.71062638413036
  0
ARC
  8
_0-0_
  6
CONTINUOUS
 62
    7
 10
1.7765155730694744
 20
1.5098891012093674
 40
17.457158365835834
 50
272.77733126493882
 51
297.83494668324084
  0
ARC
  8
_0-0_
  6
CONTINUOUS
 62
    7
 10
6.6109801344793766
 20
-9.0312268051890214
 40
5.9138298682883539
 50
304.11421113787156
 51
332.36518945433244
  0
ARC
  8
_0-0_
  6
CONTINUOUS
 62
    7
 10
10.017154153045567
 20
-11.138183014847492
 40
1.9402455913674781
 50
340.86254957583492
 51
49.647687830280482
  0
ARC
  8
_0-0_
  6
CONTINUOUS
 62
    7
 10
6.8298218299281928
 20
-14.99574709646577
 40
6.9441009355549896
 50
50.214738328425803
 51
81.860283722418643
  0
ARC
  8
_0-0_
  6
CONTINUOUS
 62
    7
 10
-8.1781563133299358
 20
-9.7588057091798817
 40
1.7856855531643234
 50
161.70212215843239
 51
235.81517853725151
  0
ARC
  8
_0-0_
  6
CONTINUOUS
 62
    7
 10
-3.2142812462577695
 20
-3.1604498895139344
 40
10.040989807879672
 50
233.53847570679187
 51
262.69685294363359
  0
ARC
  8
_0-0_
  6
CONTINUOUS
 62
    7
 10
-0.3825807089082502
 20
4.2688253484487575
 40
17.867487672748961
 50
256.7076076425671
 51
279.55703467856449
  0
ARC
  8
_0-0_
  6
CONTINUOUS
 62
    7
 10
0.4540699511015589
 20
6.6074262423527017
 40
20.071428081817857
 50
276.09140019027302
 51
291.98108674558
  0
ARC
  8
_0-0_
  6
CONTINUOUS
 62
    7
 10
5.0982306964799591
 20
-5.24017078422699
 40
7.3478661312382991
 50
292.97920539982181
 51
324.51272911234497
  0
ARC
  8
_0-0_
  6
CONTINUOUS
 62
    7
 10
-1.0896877781526086
 20
-43.047339215504365
 40
41.346846858888583
 50
89.86437747653072
 51
109.867236409638
  0
ARC
  8
_0-0_
  6
CONTINUOUS
 62
    7
 10
-11.320348864474113
 20
-20.583006221480623
 40
16.860272414110273
 50
103.09763891563972
 51
126.58713929527059
  0
ARC
  8
_0-0_
  6
CONTINUOUS
 62
    7
 10
-16.7872480534988
 20
-12.227616177043082
 40
6.9180355245963954
 50
131.48393541322977
 51
164.26606770599543
  0
ARC
  8
_0-0_
  6
CONTINUOUS
 62
    7
 10
-20.001784418931877
 20
-11.121996851922844
 40
3.5293861059343943
 50
167.39274167197357
 51
228.70290046556855
  0
ARC
  8
_0-0_
  6
CONTINUOUS
 62
    7
 10
-10.572156148585833
 20
-1.9920559845133283
 40
16.645622892355121
 50
225.05516550653681
 51
260.8518005276303
  0
ARC
  8
_0-0_
  6
CONTINUOUS
 62
    7
 10
-1.1099487306564981
 20
22.138749613397479
 40
42.33338023859946
 50
253.37949444556216
 51
270.05580672037513
  0
ARC
  8
_0-0_
  6
CONTINUOUS
 62
    7
 10
-0.0262960094626407
 20
32.435902970297192
 40
52.640835777359214
 50
268.86532681438564
 51
281.45441667953338
  0
ARC
  8
_0-0_
  6
CONTINUOUS
 62
    7
 10
7.2219116806413126
 20
2.883603423461139
 40
22.271993264395039
 50
278.27541767143026
 51
301.81508117941183
  0
ARC
  8
_0-0_
  6
CONTINUOUS
 62
    7
 10
8.587818798535011
 20
0.9005219429603386
 40
19.867117974483346
 50
301.48271814349357
 51
319.48930494050359
  0
ARC
  8
_0-0_
  6
CONTINUOUS
 62
    7
 10
20.327611898141157
 20
-11.069622368252595
 40
3.4924526992894829
 50
344.46562380079757
 51
30.187189519541352
  0
ARC
  8
_0-0_
  6
CONTINUOUS
 62
    7
 10
17.015163390400915
 20
-12.318959506781809
 40
7.0084057096363681
 50
25.393521636852917
 51
69.891568951276682
  0
ARC
  8
_0-0_
  6
CONTINUOUS
 62
    7
 10
11.203778861213806
 20
-17.689275348661944
 40
14.505903608030527
 50
55.47782934216724
 51
80.262297194308601
  0
ARC
  8
_0-0_
  6
CONTINUOUS
 62
    7
 10
5.7896371860232989
 20
-25.385234906083028
 40
23.357782432274028
 50
70.316040723179185
 51
87.676877573321775
  0
ARC
  8
_0-0_
  6
CONTINUOUS
 62
    7
 10
0.1039810565332857
 20
-63.699732509038149
 40
62.008807364222022
 50
83.859895413537757
 51
91.012564163532318
  0
ARC
  8
_0-0_
  6
CONTINUOUS
 62
    7
 10
0.5490085825764765
 20
-57.373360815280506
 40
58.683173770957985
 50
91.129070171414327
 51
103.99378668391958
  0
ARC
  8
_0-0_
  6
CONTINUOUS
 62
    7
 10
-9.6904272636771509
 20
-19.32937525864827
 40
19.306222567090682
 50
101.80936140750332
 51
121.42019647806906
  0
ARC
  8
_0-0_
  6
CONTINUOUS
 62
    7
 10
-16.248703898249119
 20
-10.787158442786478
 40
8.6733836545189877
 50
113.84445474738587
 51
142.17856579264708
  0
ARC
  8
_0-0_
  6
CONTINUOUS
 62
    7
 10
-20.829789517210259
 20
-7.6409894030592653
 40
3.1421655249608551
 50
136.26201602975846
 51
187.38194637340527
  0
ARC
  8
_0-0_
  6
CONTINUOUS
 62
    7
 10
-20.966108944890991
 20
-8.1408273045530066
 40
2.9813528368765172
 50
178.1523897340029
 51
200.77225468204793
  0
ARC
  8
_0-0_
  6
CONTINUOUS
 62
    7
 10
-16.318830642136945
 20
-9.1844818778014741
 40
7.4348484431219823
 50
138.29640550725475
 51
180.10553767506235
  0
ARC
  8
_0-0_
  6
CONTINUOUS
 62
    7
 10
1.6365327621269614
 20
-44.878436737904153
 40
46.231341442178937
 50
79.426333904779113
 51
92.781970069045897
  0
ARC
  8
_0-0_
  6
CONTINUOUS
 62
    7
 10
3.8098977061465291
 20
-39.008530861758203
 40
40.076299416005149
 50
68.730070279455461
 51
80.941007921067651
  0
ARC
  8
_0-0_
  6
CONTINUOUS
 62
    7
 10
13.466680471409148
 20
-13.387477452978239
 40
12.70082673169324
 50
43.159959469407013
 51
67.397480138857659
  0
ARC
  8
_0-0_
  6
CONTINUOUS
 62
    7
 10
20.222165310823385
 20
-7.5256421950222716
 40
3.7791349866845643
 50
358.54251898269956
 51
48.399467253621616
  0
ARC
  8
_0-0_
  6
CONTINUOUS
 62
    7
 10
12.288674222979495
 20
-7.8405583820439091
 40
11.713447013836582
 50
353.34431476278229
 51
1.0702805057917042
  0
ARC
  8
_0-0_
  6
CONTINUOUS
 62
    7
 10
16.854205031473555
 20
-8.8826681719280742
 40
7.0760120056354019
 50
357.44442164837056
 51
48.952759378925997
  0
LINE
  8
_0-0_
  6
CONTINUOUS
 62
    7
 10
-23.753666472451002
 20
-9.1981767115586379
 11
-23.522972056377029
 21
-11.505120872298463
  0
LINE
  8
_0-0_
  6
CONTINUOUS
 62
    7
 10
23.923179516171928
 20
-9.198176711558645
 11
23.80783230813492
 21
-11.735815288372443
  0
ARC
  8
_0-0_
  6
CONTINUOUS
 62
    7
 10
-16.77442196037785
 20
-5.9967187719358748
 40
9.5985629261265313
 50
200.70544165429314
 51
234.90761823511573
  0
ARC
  8
_0-0_
  6
CONTINUOUS
 62
    7
 10
-19.580780845143039
 20
-9.6754214287992895
 40
6.1788135677580458
 50
138.05646230056209
 51
177.35627938004984
  0
ARC
  8
_0-0_
  6
CONTINUOUS
 62
    7
 10
-10.198867176625029
 20
-21.168941121520163
 40
20.963507080157694
 50
103.41983892900375
 51
131.817897218529
  0
ARC
  8
_0-0_
  6
CONTINUOUS
 62
    7
 10
15.771916169671698
 20
-12.253786110582375
 40
10.97515232045569
 50
30.872647521276804
 51
76.424556561616612
  0
ARC
  8
_0-0_
  6
CONTINUOUS
 62
    7
 10
21.250969196647986
 20
-8.5765834238037755
 40
4.399063828546125
 50
339.9812396062178
 51
26.378420633510963
  0
ARC
  8
_0-0_
  6
CONTINUOUS
 62
    7
 10
15.280967958951464
 20
-4.9051245131748615
 40
11.352597134497683
 50
302.99039357023571
 51
332.86732282915045
  0
ARC
  8
_0-0_
  6
CONTINUOUS
 62
    7
 10
12.408301399385067
 20
2.9632886485656798
 40
19.60380564135809
 50
296.74934837145048
 51
313.42514873510163
  0
ARC
  8
_0-0_
  6
CONTINUOUS
 62
    7
 10
21.547679939334955
 20
-7.2789877878993181
 40
5.8964322638370783
 50
317.34340434460353
 51
351.78416289456214
  0
ARC
  8
_0-0_
  6
CONTINUOUS
 62
    7
 10
23.956865906945694
 20
-7.4111293248373258
 40
3.4996071184197812
 50
348.28666453976234
 51
46.957929917574603
  0
ARC
  8
_0-0_
  6
CONTINUOUS
 62
    7
 10
21.377346875399127
 20
-7.5127207864717462
 40
5.6350753044025543
 50
28.158817709096702
 51
68.290227503942845
  0
ARC
  8
_0-0_
  6
CONTINUOUS
 62
    7
 10
9.7096395002045028
 20
-22.813641306989993
 40
24.715605593312006
 50
56.191719311072177
 51
77.724361754491738
  0
ARC
  8
_0-0_
  6
CONTINUOUS
 62
    7
 10
1.3273991287806837
 20
-56.524099053078046
 40
59.446306246455713
 50
76.738087207817912
 51
94.240325858832151
  0
ARC
  8
_0-0_
  6
CONTINUOUS
 62
    7
 10
-1.049491023836822
 20
-49.819618475251723
 40
52.617835868502326
 50
92.198575429236016
 51
110.42128951880423
  0
ARC
  8
_0-0_
  6
CONTINUOUS
 62
    7
 10
-12.609844540432249
 20
-19.675548108252904
 40
20.337060077307616
 50
109.53116641608354
 51
128.5780417820711
  0
ARC
  8
_0-0_
  6
CONTINUOUS
 62
    7
 10
-21.107785406935889
 20
-8.7075331527345767
 40
6.466537511405539
 50
130.31572583482827
 51
162.97622266213833
  0
ARC
  8
_0-0_
  6
CONTINUOUS
 62
    7
 10
-23.089382731202335
 20
-8.1404123865383795
 40
4.4058948654077437
 50
162.48363897218252
 51
204.4950108394107
  0
ARC
  8
_0-0_
  6
CONTINUOUS
 62
    7
 10
-19.740475205386275
 20
-6.1417543150229932
 40
8.2932327081183654
 50
207.46896668797996
 51
238.28884051869684
  0
ARC
  8
_0-0_
  6
CONTINUOUS
 62
    7
 10
-13.63057578615684
 20
1.1281447698484754
 40
17.742859515817408
 50
233.8396113424308
 51
245.10097685770111
  0
ARC
  8
_0-0_
  6
CONTINUOUS
 62
    7
 10
-20.629752518823892
 20
-5.6149159856123916
 40
6.9743057607177033
 50
131.52317979470914
 51
165.04655317509562
  0
ARC
  8
_0-0_
  6
CONTINUOUS
 62
    7
 10
-10.442988022646546
 20
-17.549411912852861
 40
22.664346469969182
 50
107.49333442985831
 51
130.8028092615676
  0
ARC
  8
_0-0_
  6
CONTINUOUS
 62
    7
 10
-3.7798740624238576
 20
-31.600456401269099
 40
38.128068962162764
 50
90.143695503243421
 51
110.69772929034568
  0
ARC
  8
_0-0_
  6
CONTINUOUS
 62
    7
 10
1.4353294269151036
 20
-42.821611526326606
 40
49.634050479653453
 50
78.612808674990333
 51
96.142388403927455
  0
ARC
  8
_0-0_
  6
CONTINUOUS
 62
    7
 10
6.8575168382562026
 20
-25.672585306342675
 40
31.810626720870161
 50
62.591625548829569
 51
82.090412058904178
  0
ARC
  8
_0-0_
  6
CONTINUOUS
 62
    7
 10
13.742731220145203
 20
-12.398394893703085
 40
16.85702174253877
 50
45.411698927149473
 51
62.597859323405217
  0
ARC
  8
_0-0_
  6
CONTINUOUS
 62
    7
 10
17.044843373754588
 20
-7.6774148371768547
 40
11.2181430851864
 50
25.247607624071303
 51
40.489750242663881
  0
LINE
  8
_0-0_
  6
CONTINUOUS
 62
    7
 10
-27.367878990943382
 20
-3.815307003165735
 11
-27.483226198980375
 21
-8.3138481166083835
  0
LINE
  8
_0-0_
  6
CONTINUOUS
 62
    7
 10
27.191350410553326
 20
-2.8925293388698066
 11
27.460493895972974
 21
-7.5448667296951086
  0
ARC
  8
_0-0_
  6
CONTINUOUS
 62
    7
 10
-2.3502255528114517
 20
-2.2381412566729253
 40
7.6728787156832023
 50
230.96931299262209
 51
265.78429475156855
  0
ARC
  8
_0-0_
  6
CONTINUOUS
 62
    7
 10
-0.2276676858668906
 20
7.6750782807481954
 40
17.769607318820139
 50
261.30405183775099
 51
284.29650649832502
  0
ARC
  8
_0-0_
  6
CONTINUOUS
 62
    7
 10
3.4929918831438158
 20
-4.0795070368121245
 40
5.505310794461221
 50
276.9626455346887
 51
314.49876566837366
  0
LINE
  8
_0-0_
  6
CONTINUOUS
 62
    7
 10
-1.2225118358921065
 20
-7.2372741749298015
 11
-1.3378590439290861
 21
-9.0059313648303245
  0
LINE
  8
_0-0_
  6
CONTINUOUS
 62
    7
 10
2.0841081278349805
 20
-7.2372741749298015
 11
2.2379044052176198
 21
-8.6598897407193505
  0
LINE
  8
_0-0_
  6
CONTINUOUS
 62
    7
 10
-4.1061920368168785
 20
-7.5833157990407685
 11
-4.221539244853858
 21
-8.6598897407193505
  0
LINE
  8
_0-0_
  6
CONTINUOUS
 62
    7
 10
-1.3378590439290861
 20
-9.0059313648303245
 11
2.2379044052176198
 21
-8.6598897407193505
  0
LINE
  8
_0-0_
  6
CONTINUOUS
 62
    7
 10
4.2372560111921302
 20
-7.5064176603494417
 11
4.3141541498834499
 21
-8.4291953246453701
  0
LINE
  8
_0-0_
  6
CONTINUOUS
 62
    7
 10
4.3141541498834499
 20
-8.4291953246453701
 11
5.5445243689447068
 21
-8.1985009085713898
  0
LINE
  8
_0-0_
  6
CONTINUOUS
 62
    7
 10
5.5445243689447068
 20
-8.1985009085713898
 11
6.505751102586288
 21
-7.8524592844604157
  0
LINE
  8
_0-0_
  6
CONTINUOUS
 62
    7
 10
-4.221539244853858
 20
-8.6598897407193505
 11
-5.4519094639151149
 21
-8.2753990472627166
  0
LINE
  8
_0-0_
  6
CONTINUOUS
 62
    7
 10
-5.4519094639151149
 20
-8.2753990472627166
 11
-6.1055436427913889
 21
-7.9678064924974095
  0
LINE
  8
_0-0_
  6
CONTINUOUS
 62
    7
 10
-9.7582052306294429
 20
-9.8902599597805931
 11
-8.7200803582965136
 21
-9.3519729889412986
  0
LINE
  8
_0-0_
  6
CONTINUOUS
 62
    7
 10
-8.5662840809138601
 20
-11.351324594915809
 11
-7.874200832691912
 21
-10.697690416039528
  0
LINE
  8
_0-0_
  6
CONTINUOUS
 62
    7
 10
-7.3359138618526316
 20
-11.96650970444643
 11
-6.7976268910133371
 21
-11.312875525570142
  0
LINE
  8
_0-0_
  6
CONTINUOUS
 62
    7
 10
-4.3753355222365258
 20
-12.773940160705365
 11
-3.990844828779899
 21
-12.274102259211737
  0
LINE
  8
_0-0_
  6
CONTINUOUS
 62
    7
 10
-2.4144329856076752
 20
-12.658592952668371
 11
-2.5297801936446831
 21
-13.235328992853326
  0
LINE
  8
_0-0_
  6
CONTINUOUS
 62
    7
 10
1.1613304635390307
 20
-12.697042022014038
 11
1.2766776715760386
 21
-13.235328992853326
  0
LINE
  8
_0-0_
  6
CONTINUOUS
 62
    7
 10
3.0453348614765616
 20
-12.427898536594391
 11
3.2760292775505491
 21
-13.158430854161999
  0
LINE
  8
_0-0_
  6
CONTINUOUS
 62
    7
 10
5.736769715673006
 20
-11.505120872298463
 11
6.4288529638949683
 21
-12.274102259211737
  0
LINE
  8
_0-0_
  6
CONTINUOUS
 62
    7
 10
7.1978343508082219
 20
-11.043732040150502
 11
7.8514685296845244
 21
-11.697366219026783
  0
LINE
  8
_0-0_
  6
CONTINUOUS
 62
    7
 10
8.6204499165977779
 20
-9.7749127517435994
 11
9.6585747889307072
 21
-9.9671580984719199
  0
LINE
  8
_0-0_
  6
CONTINUOUS
 62
    7
 10
9.2356350261283922
 20
-8.7752369487563442
 11
9.7739219969676867
 21
-8.852135087447671
  0
LINE
  8
_0-0_
  6
CONTINUOUS
 62
    7
 10
26.268572746257405
 20
-10.274750653237227
 11
25.307346012615795
 21
-10.697690416039528
  0
LINE
  8
_0-0_
  6
CONTINUOUS
 62
    7
 10
25.576489498035443
 20
-11.389773664261469
 11
24.845957180467849
 21
-11.505120872298463
  0
LINE
  8
_0-0_
  6
CONTINUOUS
 62
    7
 10
25.73028577541811
 20
-4.545839320733343
 11
24.807508111122189
 21
-5.2763716383009509
  0
LINE
  8
_0-0_
  6
CONTINUOUS
 62
    7
 10
24.884406249813509
 20
-3.5461635177460877
 11
24.038526724208907
 21
-4.3151449046593626
  0
LINE
  8
_0-0_
  6
CONTINUOUS
 62
    7
 10
14.887648219940957
 20
1.0677248037335545
 11
14.195564971719023
 21
0.0295999314006252
  0
LINE
  8
_0-0_
  6
CONTINUOUS
 62
    7
 10
12.734500336583807
 20
1.606011774572849
 11
12.196213365744512
 21
0.5294378328942599
  0
LINE
  8
_0-0_
  6
CONTINUOUS
 62
    7
 10
-3.1065162338296375
 20
2.5672385082144302
 11
-2.87582181775565
 21
1.7213589826098286
  0
LINE
  8
_0-0_
  6
CONTINUOUS
 62
    7
 10
-5.8748492267174015
 20
2.3365440921404428
 11
-5.6057057412977542
 21
1.4906645665358411
  0
LINE
  8
_0-0_
  6
CONTINUOUS
 62
    7
 10
-19.370472567045354
 20
-0.97007587158663
 11
-18.563042110786412
 21
-1.8544044665368915
  0
LINE
  8
_0-0_
  6
CONTINUOUS
 62
    7
 10
-21.139129756945877
 20
-1.8544044665368915
 11
-20.293250231341275
 21
-2.6233858534501593
  0
LINE
  8
_0-0_
  6
CONTINUOUS
 62
    7
 10
-26.291305049264807
 20
-7.5064176603494417
 11
-25.522323662351539
 21
-7.8524592844604157
  0
LINE
  8
_0-0_
  6
CONTINUOUS
 62
    7
 10
-26.714244812067108
 20
-8.3907462552997103
 11
-25.753018078425512
 21
-8.6983388100650174
  0
LINE
  8
_0-0_
  6
CONTINUOUS
 62
    7
 10
-23.023134154883394
 20
-13.658268755655627
 11
-22.677092530772427
 21
-13.54292154761864
  0
LINE
  8
_0-0_
  6
CONTINUOUS
 62
    7
 10
-2.9128105199549452
 20
-10.0601856653468
 11
-2.9376149649183105
 21
-11.734485700373526
  0
LINE
  8
_0-0_
  6
CONTINUOUS
 62
    7
 10
-2.5035371780595312
 20
-10.072587887828476
 11
-2.5655482904679161
 21
-11.784094590300249
  0
LINE
  8
_0-0_
  6
CONTINUOUS
 62
    7
 10
-2.1810793935358674
 20
-10.184207890163592
 11
-2.1438727260908195
 21
-11.858507925190324
  0
LINE
  8
_0-0_
  6
CONTINUOUS
 62
    7
 10
-1.7594038291587424
 20
-10.122196777755192
 11
-1.7966104966037904
 21
-11.846105702708641
  0
LINE
  8
_0-0_
  6
CONTINUOUS
 62
    7
 10
-1.3625327097450111
 20
-10.258621225053666
 11
-1.3625327097450111
 21
-11.746887922855208
  0
LINE
  8
_0-0_
  6
CONTINUOUS
 62
    7
 10
-0.9656615903312797
 20
-10.283425670017031
 11
-0.9408571453679144
 21
-11.895714592635365
  0
LINE
  8
_0-0_
  6
CONTINUOUS
 62
    7
 10
-0.5563882484358373
 20
-10.20901233512695
 11
-0.5439860259541546
 21
-11.821301257745283
  0
LINE
  8
_0-0_
  6
CONTINUOUS
 62
    7
 10
-0.1471149065404233
 20
-10.159403445200233
 11
-0.1471149065404233
 21
-11.821301257745283
  0
LINE
  8
_0-0_
  6
CONTINUOUS
 62
    7
 10
0.2373539903916537
 20
-10.258621225053666
 11
0.2745606578366732
 21
-11.870910147672006
  0
LINE
  8
_0-0_
  6
CONTINUOUS
 62
    7
 10
0.7334428896588178
 20
-10.221414557608632
 11
0.6590295547687503
 21
-11.796496812781925
  0
LINE
  8
_0-0_
  6
CONTINUOUS
 62
    7
 10
1.080705119145847
 20
-10.184207890163592
 11
1.117911786590895
 21
-11.920519037598723
  0
LINE
  8
_0-0_
  6
CONTINUOUS
 62
    7
 10
1.4775762385595783
 20
-10.221414557608632
 11
1.489978461041261
 21
-11.734485700373526
  0
LINE
  8
_0-0_
  6
CONTINUOUS
 62
    7
 10
1.8992518029367034
 20
-10.159403445200233
 11
1.8992518029367034
 21
-11.709681255410167
  0
LINE
  8
_0-0_
  6
CONTINUOUS
 62
    7
 10
2.3085251448321173
 20
-10.171805667681916
 11
2.2093073649786845
 21
-11.72208347789185
  0
LINE
  8
_0-0_
  6
CONTINUOUS
 62
    7
 10
2.6061784843924158
 20
-10.159403445200233
 11
2.6557873743191465
 21
-11.53605014066666
  0
LINE
  8
_0-0_
  6
CONTINUOUS
 62
    7
 10
3.0402562712511951
 20
-10.084990110310159
 11
2.9410384913977623
 21
-11.53605014066666
  0
LINE
  8
_0-0_
  6
CONTINUOUS
 62
    7
 10
3.3131051658481567
 20
-9.9733701079750432
 11
3.337909610811522
 21
-11.511245695703295
  0
LINE
  8
_0-0_
  6
CONTINUOUS
 62
    7
 10
3.7719873976703013
 20
-9.8369456606765695
 11
3.7595851751886187
 21
-11.201190133661314
  0
LINE
  8
_0-0_
  6
CONTINUOUS
 62
    7
 10
4.15645629460235
 20
-9.7377278808231296
 11
4.0944451821939651
 21
-11.288005691033064
  0
LINE
  8
_0-0_
  6
CONTINUOUS
 62
    7
 10
4.5533274140161097
 20
-9.6509123234513723
 11
4.4913163016076965
 21
-11.188787911179631
  0
LINE
  8
_0-0_
  6
CONTINUOUS
 62
    7
 10
4.9005896435031389
 20
-9.5889012110429803
 11
4.8757851985397735
 21
-10.953145684027717
  0
LINE
  8
_0-0_
  6
CONTINUOUS
 62
    7
 10
5.1982429830634374
 20
-9.8369456606765695
 11
5.1114274256916872
 21
-10.77951456928421
  0
LINE
  8
_0-0_
  6
CONTINUOUS
 62
    7
 10
5.5207007675871012
 20
-9.8121412157132042
 11
5.5331029900687838
 21
-10.30823011498039
  0
LINE
  8
_0-0_
  6
CONTINUOUS
 62
    7
 10
5.4214829877336683
 20
-9.8245434381948868
 11
5.3594718753252835
 21
-10.581079009577337
  0
LINE
  8
_0-0_
  6
CONTINUOUS
 62
    7
 10
5.657125214885582
 20
-9.725325658341454
 11
5.6447229924038993
 21
-10.407447894833822
  0
LINE
  8
_0-0_
  6
CONTINUOUS
 62
    7
 10
-3.2228660819969264
 20
-10.109794555273517
 11
-3.1980616370335611
 21
-11.72208347789185
  0
LINE
  8
_0-0_
  6
CONTINUOUS
 62
    7
 10
-3.6321394238923403
 20
-9.9857723304567187
 11
-3.6197372014106577
 21
-11.598061253075052
  0
LINE
  8
_0-0_
  6
CONTINUOUS
 62
    7
 10
-4.0166083208244174
 20
-9.9733701079750432
 11
-4.1034238781961676
 21
-11.498843473221619
  0
LINE
  8
_0-0_
  6
CONTINUOUS
 62
    7
 10
-4.3018594379030333
 20
-9.9733701079750432
 11
-4.3886749952747834
 21
-11.399625693368186
  0
LINE
  8
_0-0_
  6
CONTINUOUS
 62
    7
 10
-4.6367194449083797
 20
-9.8245434381948868
 11
-4.6243172224266971
 21
-11.263201246069713
  0
LINE
  8
_0-0_
  6
CONTINUOUS
 62
    7
 10
-4.884763894541976
 20
-9.8741523281216033
 11
-4.9467750069503609
 21
-11.238396801106347
  0
LINE
  8
_0-0_
  6
CONTINUOUS
 62
    7
 10
-5.2320261240290051
 20
-10.02297899790176
 11
-5.2196239015473225
 21
-10.605883454540695
  0
LINE
  8
_0-0_
  6
CONTINUOUS
 62
    7
 10
-5.4676683511809188
 20
-9.5392923211162568
 11
-5.5420816860709863
 21
-10.705101234394135
  0
LINE
  8
_0-0_
  6
CONTINUOUS
 62
    7
 10
-5.839735025631299
 20
-9.4896834311895404
 11
-5.9389528054847318
 21
-10.283425670017031
  0
LINE
  8
_0-0_
  6
CONTINUOUS
 62
    7
 10
-6.4102372597885591
 20
-9.6137056560063385
 11
-6.4474439272335928
 21
-9.8245434381948868
  0
LINE
  8
_0-0_
  6
CONTINUOUS
 62
    7
 10
-6.7450972667939055
 20
-9.5144878761528986
 11
-6.7947061567206219
 21
-9.5764989885612977
  0
LINE
  8
_0-0_
  6
CONTINUOUS
 62
    7
 10
-7.1915772761343675
 20
-9.2044323141109174
 11
-7.2411861660610839
 21
-9.3532589838910667
  0
LINE
  8
_0-0_
  6
CONTINUOUS
 62
    7
 10
6.0291918893359764
 20
-9.8245434381948868
 11
6.0291918893359764
 21
-10.047783442865118
  0
LINE
  8
_0-0_
  6
CONTINUOUS
 62
    7
 10
6.4260630087497361
 20
-9.7501301033048122
 11
6.5996941234932365
 21
-9.8245434381948868
  0
LINE
  8
_0-0_
  6
CONTINUOUS
 62
    7
 10
6.7981296832001021
 20
-9.4524767637445066
 11
6.8477385731268328
 21
-9.5764989885612977
  0
LINE
  8
_0-0_
  6
CONTINUOUS
 62
    7
 10
-27.039240989299543
 20
-3.0396587951920182
 11
-27.082688265509248
 21
-5.6754602185807954
  0
LINE
  8
_0-0_
  6
CONTINUOUS
 62
    7
 10
-26.822004608251007
 20
-2.9093169665628977
 11
-26.822004608251007
 21
-5.0961632024513932
  0
LINE
  8
_0-0_
  6
CONTINUOUS
 62
    7
 10
-26.56132095099278
 20
-2.5907036076917294
 11
-26.488908823976601
 21
-4.3141122306766988
  0
LINE
  8
_0-0_
  6
CONTINUOUS
 62
    7
 10
-20.797315640505218
 20
2.2464264769887876
 11
-20.840762916714922
 21
-0.5631640512388145
  0
LINE
  8
_0-0_
  6
CONTINUOUS
 62
    7
 10
-21.057999297763459
 20
2.0436725213434954
 11
-21.159376275586098
 21
-0.6790234544646978
  0
LINE
  8
_0-0_
  6
CONTINUOUS
 62
    7
 10
-21.456265996352428
 20
1.8554009911014333
 11
-21.499713272562133
 21
-0.9541895371261688
  0
LINE
  8
_0-0_
  6
CONTINUOUS
 62
    7
 10
-21.789361780626834
 20
1.5947173338432066
 11
-21.832809056836538
 21
-1.2148731943843956
  0
LINE
  8
_0-0_
  6
CONTINUOUS
 62
    7
 10
-22.064527863288291
 20
1.3919633781979144
 11
-22.107975139497995
 21
-1.4176271500296878
  0
LINE
  8
_0-0_
  6
CONTINUOUS
 62
    7
 10
-22.267281818933583
 20
1.261621549568801
 11
-22.310729095143287
 21
-1.5479689786588011
  0
LINE
  8
_0-0_
  6
CONTINUOUS
 62
    7
 10
-22.556930326998284
 20
1.1167972955364434
 11
-22.600377603207988
 21
-1.6927932326911588
  0
LINE
  8
_0-0_
  6
CONTINUOUS
 62
    7
 10
-23.005885514498573
 20
0.8705960636814467
 11
-23.049332790708277
 21
-1.9389944645461554
  0
LINE
  8
_0-0_
  6
CONTINUOUS
 62
    7
 10
-23.367946149579453
 20
0.5519827048102854
 11
-23.411393425789157
 21
-2.2576078234173167
  0
LINE
  8
_0-0_
  6
CONTINUOUS
 62
    7
 10
-23.730006784660333
 20
0.2623341967455843
 11
-23.773454060870037
 21
-2.5472563314820178
  0
LINE
  8
_0-0_
  6
CONTINUOUS
 62
    7
 10
-24.28033894998326
 20
0.0885450919067523
 11
-24.323786226192965
 21
-2.7210454363208498
  0
LINE
  8
_0-0_
  6
CONTINUOUS
 62
    7
 10
-24.092067419741213
 20
-0.1142088637385256
 11
-24.135514695950917
 21
-2.9237993919661278
  0
LINE
  8
_0-0_
  6
CONTINUOUS
 62
    7
 10
-24.64239958506414
 20
-0.3604100955935223
 11
-24.685846861273845
 21
-3.1700006238211245
  0
LINE
  8
_0-0_
  6
CONTINUOUS
 62
    7
 10
-25.033425070951481
 20
-0.6645410290614677
 11
-25.076872347161185
 21
-3.4741315572890699
  0
LINE
  8
_0-0_
  6
CONTINUOUS
 62
    7
 10
-25.352038429822656
 20
-1.0121192387391034
 11
-25.39548570603236
 21
-3.8217097669667055
  0
LINE
  8
_0-0_
  6
CONTINUOUS
 62
    7
 10
-25.77202876651647
 20
-1.3307325976102788
 11
-25.815476042726175
 21
-4.140323125837881
  0
LINE
  8
_0-0_
  6
CONTINUOUS
 62
    7
 10
-26.076159699984416
 20
-1.5479689786588011
 11
-26.11960697619412
 21
-4.3575595068864033
  0
LINE
  8
_0-0_
  6
CONTINUOUS
 62
    7
 10
-26.13408940159735
 20
-1.7362405089008632
 11
-26.177536677807055
 21
-4.5458310371284654
  0
LINE
  8
_0-0_
  6
CONTINUOUS
 62
    7
 10
-20.384566516513033
 20
2.4636628580373099
 11
-20.428013792722737
 21
-0.3459276701902922
  0
LINE
  8
_0-0_
  6
CONTINUOUS
 62
    7
 10
-19.90664647820627
 20
2.6953816644890765
 11
-19.950093754415974
 21
-0.1142088637385256
  0
LINE
  8
_0-0_
  6
CONTINUOUS
 62
    7
 10
-19.501138566915685
 20
2.9415828963440731
 11
-19.54458584312539
 21
0.1319923681164709
  0
LINE
  8
_0-0_
  6
CONTINUOUS
 62
    7
 10
-18.965288826995987
 20
3.028477448763482
 11
-19.008736103205692
 21
0.2188869205358798
  0
LINE
  8
_0-0_
  6
CONTINUOUS
 62
    7
 10
-18.574263341108647
 20
3.2022665536022998
 11
-18.617710617318352
 21
0.3926760253746977
  0
LINE
  8
_0-0_
  6
CONTINUOUS
 62
    7
 10
-17.966001474172771
 20
3.3615732330378876
 11
-18.009448750382475
 21
0.5519827048102854
  0
LINE
  8
_0-0_
  6
CONTINUOUS
 62
    7
 10
-17.488081435866022
 20
3.6367393156993586
 11
-17.531528712075726
 21
0.8271487874717564
  0
LINE
  8
_0-0_
  6
CONTINUOUS
 62
    7
 10
-17.068091099172193
 20
3.7091514427155374
 11
-17.111538375381897
 21
0.8995609144879352
  0
LINE
  8
_0-0_
  6
CONTINUOUS
 62
    7
 10
-16.633618337075148
 20
3.8250108459414065
 11
-16.677065613284853
 21
1.0154203177138044
  0
LINE
  8
_0-0_
  6
CONTINUOUS
 62
    7
 10
-16.19914557497809
 20
3.9698350999737642
 11
-16.242592851187794
 21
1.160244571746162
  0
LINE
  8
_0-0_
  6
CONTINUOUS
 62
    7
 10
-15.634330984251932
 20
4.3463781604578742
 11
-15.677778260461636
 21
1.536787632230272
  0
LINE
  8
_0-0_
  6
CONTINUOUS
 62
    7
 10
-15.026069117316055
 20
4.3318957350546441
 11
-15.06951639352576
 21
1.522305206827042
  0
LINE
  8
_0-0_
  6
CONTINUOUS
 62
    7
 10
-14.577113929815766
 20
4.5346496906999363
 11
-14.620561206025471
 21
1.7250591624723342
  0
LINE
  8
_0-0_
  6
CONTINUOUS
 62
    7
 10
-13.910922361266955
 20
4.6505090939258196
 11
-13.95436963747666
 21
1.8409185656982174
  0
LINE
  8
_0-0_
  6
CONTINUOUS
 62
    7
 10
-13.650238704008714
 20
4.7663684971516886
 11
-13.693685980218419
 21
1.9567779689240865
  0
LINE
  8
_0-0_
  6
CONTINUOUS
 62
    7
 10
-12.926117433846969
 20
4.9980873036034552
 11
-12.969564710056673
 21
2.1884967753758531
  0
LINE
  8
_0-0_
  6
CONTINUOUS
 62
    7
 10
-12.259925865298158
 20
5.1863588338455173
 11
-12.303373141507862
 21
2.3767683056179152
  0
LINE
  8
_0-0_
  6
CONTINUOUS
 62
    7
 10
-11.709593699975215
 20
5.2587709608616819
 11
-11.75304097618492
 21
2.4491804326340798
  0
LINE
  8
_0-0_
  6
CONTINUOUS
 62
    7
 10
-10.970990004410226
 20
5.2732533862649262
 11
-11.01443728061993
 21
2.4636628580373241
  0
LINE
  8
_0-0_
  6
CONTINUOUS
 62
    7
 10
-10.478587540700232
 20
5.4615249165069741
 11
-10.522034816909937
 21
2.651934388279372
  0
LINE
  8
_0-0_
  6
CONTINUOUS
 62
    7
 10
-9.8558432483611398
 20
5.635314021345792
 11
-9.8992905245708442
 21
2.8257234931181898
  0
LINE
  8
_0-0_
  6
CONTINUOUS
 62
    7
 10
-9.4503353370705554
 20
5.5918667451360875
 11
-9.4937826132802599
 21
2.7822762169084854
  0
LINE
  8
_0-0_
  6
CONTINUOUS
 62
    7
 10
-8.8565558955379089
 20
5.7222085737652009
 11
-8.9000031717476134
 21
2.9126180455375987
  0
LINE
  8
_0-0_
  6
CONTINUOUS
 62
    7
 10
-8.1903643269890978
 20
5.7222085737652009
 11
-8.2338116031988022
 21
2.9126180455375987
  0
LINE
  8
_0-0_
  6
CONTINUOUS
 62
    7
 10
-7.5676200346499911
 20
5.7656558499749195
 11
-7.6110673108596956
 21
2.9560653217473174
  0
LINE
  8
_0-0_
  6
CONTINUOUS
 62
    7
 10
-6.8724636152947056
 20
6.0263395072331463
 11
-6.9159108915044101
 21
3.2167489790055441
  0
LINE
  8
_0-0_
  6
CONTINUOUS
 62
    7
 10
-6.1338599197297157
 20
5.9249625294105073
 11
-6.1773071959394201
 21
3.1153720011829051
  0
LINE
  8
_0-0_
  6
CONTINUOUS
 62
    7
 10
-5.3228440971485611
 20
6.0553043580396206
 11
-5.3662913733582798
 21
3.2457138298120185
  0
LINE
  8
_0-0_
  6
CONTINUOUS
 62
    7
 10
-4.6856173794062101
 20
5.9828922310234418
 11
-4.7290646556159288
 21
3.1733017027958397
  0
LINE
  8
_0-0_
  6
CONTINUOUS
 62
    7
 10
-4.120802788680038
 20
6.0842692088460808
 11
-4.1642500648897283
 21
3.2746786806184787
  0
LINE
  8
_0-0_
  6
CONTINUOUS
 62
    7
 10
-3.6573651757765333
 20
6.185646186668734
 11
-3.700812451986252
 21
3.3760556584411319
  0
LINE
  8
_0-0_
  6
CONTINUOUS
 62
    7
 10
-3.0201384580341823
 20
6.1277164850557995
 11
-3.063585734243901
 21
3.3181259568281973
  0
LINE
  8
_0-0_
  6
CONTINUOUS
 62
    7
 10
-2.2091226354530136
 20
6.1277164850557995
 11
-2.2525699116627322
 21
3.3181259568281973
  0
LINE
  8
_0-0_
  6
CONTINUOUS
 62
    7
 10
-1.7891322987591991
 20
6.1711637612655039
 11
-1.8325795749688893
 21
3.3615732330379018
  0
LINE
  8
_0-0_
  6
CONTINUOUS
 62
    7
 10
-0.9781164761780303
 20
6.1711637612655039
 11
-1.0215637523877206
 21
3.3615732330379018
  0
LINE
  8
_0-0_
  6
CONTINUOUS
 62
    7
 10
-0.4133018854518582
 20
6.2001286120719641
 11
-0.4567491616615768
 21
3.3905380838443619
  0
LINE
  8
_0-0_
  6
CONTINUOUS
 62
    7
 10
0.165995130677544
 20
6.1711637612655039
 11
0.1225478544678537
 21
3.3615732330379018
  0
LINE
  8
_0-0_
  6
CONTINUOUS
 62
    7
 10
0.919081251645764
 20
6.3015055898946173
 11
0.8756339754360453
 21
3.4919150616670152
  0
LINE
  8
_0-0_
  6
CONTINUOUS
 62
    7
 10
1.3825188645492972
 20
6.185646186668734
 11
1.3390715883395785
 21
3.3760556584411319
  0
LINE
  8
_0-0_
  6
CONTINUOUS
 62
    7
 10
1.9907807314851595
 20
6.0987516342493251
 11
1.9473334552754693
 21
3.289161106021723
  0
LINE
  8
_0-0_
  6
CONTINUOUS
 62
    7
 10
2.7583492778566097
 20
6.1421989104590295
 11
2.714902001646891
 21
3.3326083822314274
  0
LINE
  8
_0-0_
  6
CONTINUOUS
 62
    7
 10
3.4824705480183695
 20
6.1132340596525552
 11
3.4390232718086793
 21
3.303643531424953
  0
LINE
  8
_0-0_
  6
CONTINUOUS
 62
    7
 10
4.1486621165671806
 20
6.1421989104590295
 11
4.1052148403574904
 21
3.3326083822314274
  0
LINE
  8
_0-0_
  6
CONTINUOUS
 62
    7
 10
4.8003712597127617
 20
6.0987516342493251
 11
4.7569239835030714
 21
3.289161106021723
  0
LINE
  8
_0-0_
  6
CONTINUOUS
 62
    7
 10
5.4086331266486241
 20
5.9828922310234418
 11
5.3651858504389054
 21
3.1733017027958397
  0
LINE
  8
_0-0_
  6
CONTINUOUS
 62
    7
 10
6.03861863168936
 20
6.0263395072331605
 11
6.0820659078990786
 21
3.2312314044087884
  0
LINE
  8
_0-0_
  6
CONTINUOUS
 62
    7
 10
6.7265338383430162
 20
5.9466861675153666
 11
6.7699811145527349
 21
3.1515780646909946
  0
LINE
  8
_0-0_
  6
CONTINUOUS
 62
    7
 10
7.3492781306821371
 20
5.9032388913056622
 11
7.3927254068918558
 21
3.1081307884812901
  0
LINE
  8
_0-0_
  6
CONTINUOUS
 62
    7
 10
7.8706454451985906
 20
5.6860025102571257
 11
7.9140927214083092
 21
2.8908944074327536
  0
LINE
  8
_0-0_
  6
CONTINUOUS
 62
    7
 10
8.4933897375377114
 20
5.6715200848538956
 11
8.5368370137474301
 21
2.8764119820295235
  0
LINE
  8
_0-0_
  6
CONTINUOUS
 62
    7
 10
9.2464758585059315
 20
5.5701431070312566
 11
9.2899231347156501
 21
2.7750350042068845
  0
LINE
  8
_0-0_
  6
CONTINUOUS
 62
    7
 10
9.7099134714094362
 20
5.5266958308215521
 11
9.7533607476191548
 21
2.7315877279971801
  0
LINE
  8
_0-0_
  6
CONTINUOUS
 62
    7
 10
10.318175338345327
 20
5.4687661292086034
 11
10.361622614555046
 21
2.6736580263842313
  0
LINE
  8
_0-0_
  6
CONTINUOUS
 62
    7
 10
10.969884481490908
 20
5.4108364275956689
 11
11.013331757700627
 21
2.6157283247712968
  0
LINE
  8
_0-0_
  6
CONTINUOUS
 62
    7
 10
11.534699072217052
 20
5.2660121735633112
 11
11.57814634842677
 21
2.4709040707389391
  0
LINE
  8
_0-0_
  6
CONTINUOUS
 62
    7
 10
12.085031237539994
 20
5.1936000465471324
 11
12.128478513749712
 21
2.3984919437227603
  0
LINE
  8
_0-0_
  6
CONTINUOUS
 62
    7
 10
12.751222806088805
 20
5.0053285163050845
 11
12.794670082298524
 21
2.2102204134807124
  0
LINE
  8
_0-0_
  6
CONTINUOUS
 62
    7
 10
13.316037396814977
 20
4.96188124009538
 11
13.359484673024696
 21
2.166773137271008
  0
LINE
  8
_0-0_
  6
CONTINUOUS
 62
    7
 10
13.79395743512174
 20
4.8749866876759711
 11
13.837404711331459
 21
2.079878584851599
  0
LINE
  8
_0-0_
  6
CONTINUOUS
 62
    7
 10
14.431184152864091
 20
4.7301624336436134
 11
14.47463142907381
 21
1.9350543308192414
  0
LINE
  8
_0-0_
  6
CONTINUOUS
 62
    7
 10
14.909104191170826
 20
4.5998206050145001
 11
14.952551467380545
 21
1.804712502190128
  0
LINE
  8
_0-0_
  6
CONTINUOUS
 62
    7
 10
15.459436356493768
 20
4.4694787763853867
 11
15.502883632703487
 21
1.6743706735610147
  0
LINE
  8
_0-0_
  6
CONTINUOUS
 62
    7
 10
16.096663074236119
 20
4.310172096949799
 11
16.140110350445838
 21
1.5150639941254269
  0
LINE
  8
_0-0_
  6
CONTINUOUS
 62
    7
 10
16.719407366575211
 20
4.1653478429174413
 11
16.76285464278493
 21
1.3702397400930693
  0
LINE
  8
_0-0_
  6
CONTINUOUS
 62
    7
 10
17.284221957301384
 20
3.9191466110624447
 11
17.327669233511102
 21
1.1240385082380726
  0
LINE
  8
_0-0_
  6
CONTINUOUS
 62
    7
 10
17.718694719398457
 20
3.8756993348527402
 11
17.762141995608175
 21
1.0805912320283682
  0
LINE
  8
_0-0_
  6
CONTINUOUS
 62
    7
 10
17.834554122624326
 20
3.7019102300139224
 11
17.878001398834044
 21
0.9068021271895503
  0
LINE
  8
_0-0_
  6
CONTINUOUS
 62
    7
 10
18.24006203391491
 20
3.6294981029977436
 11
18.283509310124629
 21
0.8343900001733715
  0
LINE
  8
_0-0_
  6
CONTINUOUS
 62
    7
 10
18.717982072221673
 20
3.3688144457395168
 11
18.761429348431392
 21
0.5737063429151447
  0
LINE
  8
_0-0_
  6
CONTINUOUS
 62
    7
 10
19.195902110528436
 20
3.296402318723338
 11
19.239349386738155
 21
0.5012942158989659
  0
LINE
  8
_0-0_
  6
CONTINUOUS
 62
    7
 10
19.543480320206072
 20
3.0212362360618812
 11
19.586927596415791
 21
0.2261281332375091
  0
LINE
  8
_0-0_
  6
CONTINUOUS
 62
    7
 10
19.934505806093426
 20
2.9488241090457024
 11
19.977953082303145
 21
0.1537160062213303
  0
LINE
  8
_0-0_
  6
CONTINUOUS
 62
    7
 10
20.397943418996931
 20
2.7750350042068845
 11
20.44139069520665
 21
-0.0200730986174875
  0
LINE
  8
_0-0_
  6
CONTINUOUS
 62
    7
 10
20.832416181093976
 20
2.543316197755118
 11
20.875863457303694
 21
-0.251791905069254
  0
LINE
  8
_0-0_
  6
CONTINUOUS
 62
    7
 10
21.22344166698133
 20
2.3405622421098258
 11
21.266888943191049
 21
-0.4545458607145462
  0
LINE
  8
_0-0_
  6
CONTINUOUS
 62
    7
 10
21.571019876658966
 20
2.0943610102548291
 11
21.614467152868684
 21
-0.7007470925695429
  0
LINE
  8
_0-0_
  6
CONTINUOUS
 62
    7
 10
22.077904765772189
 20
1.8481597783998325
 11
22.121352041981908
 21
-0.9469483244245395
  0
LINE
  8
_0-0_
  6
CONTINUOUS
 62
    7
 10
22.425482975449853
 20
1.6309233973513102
 11
22.468930251659572
 21
-1.1641847054730619
  0
LINE
  8
_0-0_
  6
CONTINUOUS
 62
    7
 10
22.71513148351454
 20
1.4426518671092481
 11
22.758578759724259
 21
-1.352456235715124
  0
LINE
  8
_0-0_
  6
CONTINUOUS
 62
    7
 10
22.917885439159846
 20
1.2978276130769046
 11
22.961332715369565
 21
-1.4972804897474674
  0
LINE
  8
_0-0_
  6
CONTINUOUS
 62
    7
 10
23.584077007708657
 20
1.051626381221908
 11
23.627524283918376
 21
-1.7434817216024641
  0
LINE
  8
_0-0_
  6
CONTINUOUS
 62
    7
 10
23.381323052063351
 20
0.9212845525927946
 11
23.42477032827307
 21
-1.8738235502315774
  0
LINE
  8
_0-0_
  6
CONTINUOUS
 62
    7
 10
24.105444322225111
 20
0.6316360445280935
 11
24.14889159843483
 21
-2.1634720582962785
  0
LINE
  8
_0-0_
  6
CONTINUOUS
 62
    7
 10
24.496469808112465
 20
0.2550929840439835
 11
24.539917084322184
 21
-2.5400151187803885
  0
LINE
  8
_0-0_
  6
CONTINUOUS
 62
    7
 10
24.988872271822459
 20
-0.0200730986174875
 11
25.032319548032177
 21
-2.8151812014418596
  0
LINE
  8
_0-0_
  6
CONTINUOUS
 62
    7
 10
25.582651713355091
 20
-0.6283349655533641
 11
25.626098989564809
 21
-3.4234430683777362
  0
LINE
  8
_0-0_
  6
CONTINUOUS
 62
    7
 10
26.132983878678033
 20
-1.2945265341021752
 11
26.176431154887752
 21
-4.0896346369265473
  0
LINE
  8
_0-0_
  6
CONTINUOUS
 62
    7
 10
26.495044513758899
 20
-1.8014114232153986
 11
26.538491789968617
 21
-4.5965195260397707
  0
LINE
  8
_0-0_
  6
CONTINUOUS
 62
    7
 10
26.842622723436563
 20
-2.206919334505983
 11
26.886069999646281
 21
-5.002027437330355
  0
LINE
  8
_0-0_
  6
CONTINUOUS
 62
    7
 10
27.059859104485071
 20
-2.9310406046677357
 11
27.103306380694789
 21
-5.7261487074921078
  0
LINE
  8
_0-0_
  6
CONTINUOUS
 62
    7
 10
25.857817796016576
 20
-0.990395600634244
 11
25.901265072226295
 21
-3.785503703458609
  0
LINE
  8
_0-0_
  6
CONTINUOUS
 62
    7
 10
25.278520779887174
 20
-0.4690282861177763
 11
25.321968056096892
 21
-3.2641363889421484
  0
ARC
  8
_0-0_
  6
CONTINUOUS
 62
    7
 10
-3.934239009395327
 20
2.7757832046387705
 40
10.588289481243322
 50
97.645519312812183
 51
127.74207057737267
  0
ARC
  8
_0-0_
  6
CONTINUOUS
 62
    7
 10
7.8984216808161989
 20
-9.6047101851644356
 40
27.678545377537429
 50
131.4267335123499
 51
149.12105840235361
  0
ARC
  8
_0-0_
  6
CONTINUOUS
 62
    7
 10
-7.0256247979600346
 20
-3.1784736712872999
 40
14.199247261789498
 50
107.48369861205177
 51
127.98468239791903
  0
ARC
  8
_0-0_
  6
CONTINUOUS
 62
    7
 10
8.6908838454008048
 20
-22.252706030109863
 40
38.911221912714922
 50
128.93905624852908
 51
141.06094375147106
  0
ARC
  8
_0-0_
  6
CONTINUOUS
 62
    7
 10
-0.339647156808212
 20
8.1744192786114809
 40
6.4546336745965904
 50
122.15724595605612
 51
150.2297328919075
  0
ARC
  8
_0-0_
  6
CONTINUOUS
 62
    7
 10
1.6847288993463678
 20
5.5464707106496007
 40
9.6018358164217847
 50
142.59321473854399
 51
174.90577424718964
  0
ARC
  8
_0-0_
  6
CONTINUOUS
 62
    7
 10
-1.7352541257088205
 20
10.199337844765495
 40
5.2630075952657567
 50
17.64117055529697
 51
43.517283189680398
  0
ARC
  8
_0-0_
  6
CONTINUOUS
 62
    7
 10
-13.392503062424652
 20
4.1697804190015546
 40
18.333419842935513
 50
8.1472909647171594
 51
24.574863945975579
  0
ARC
  8
_0-0_
  6
CONTINUOUS
 62
    7
 10
3.1160872770932713
 20
5.8991865995546249
 40
7.8627222456946049
 50
55.098273461820888
 51
72.751015370281081
  0
ARC
  8
_0-0_
  6
CONTINUOUS
 62
    7
 10
1.737585993364462
 20
3.3546412956248304
 40
10.743257687973504
 50
27.069520484441096
 51
56.833729634962189
  0
ARC
  8
_0-0_
  6
CONTINUOUS
 62
    7
 10
-0.8415732334598828
 20
-1.0340619580758812
 40
15.283622687271025
 50
25.405315789071619
 51
37.375220419303986
  0
ARC
  8
_0-0_
  6
CONTINUOUS
 62
    7
 10
4.4619053909621016
 20
-4.1724301299416737
 40
16.540618370505069
 50
62.184732764383199
 51
77.542660379120321
  0
ARC
  8
_0-0_
  6
CONTINUOUS
 62
    7
 10
4.5137829094884694
 20
-4.3568835291315651
 40
16.680074140831728
 50
44.215942480661269
 51
62.637995562300027
  0
ARC
  8
_0-0_
  6
CONTINUOUS
 62
    7
 10
-1.4463675519729691
 20
-15.066709019841468
 40
28.637559742478562
 50
38.724646905604615
 51
51.27535309439557
  0
LINE
  8
_0-0_
  6
CONTINUOUS
 62
    7
 10
-5.2968322601491877
 20
13.316057781146554
 11
5.6320316420996051
 21
13.362171130945072
  0
LINE
  8
_0-0_
  6
CONTINUOUS
 62
    7
 10
-2.3455778730440215
 20
13.269944431348037
 11
-2.2533511734469869
 21
7.0907555583466007
  0
LINE
  8
_0-0_
  6
CONTINUOUS
 62
    7
 10
0.6979032136581793
 20
13.316057781146554
 11
1.0206966622477864
 21
6.998528858749566
  0
LINE
  8
_0-0_
  6
CONTINUOUS
 62
    7
 10
-2.8528247208277264
 20
12.716584233765815
 11
-2.8067113710291949
 21
7.9669092045184442
  0
LINE
  8
_0-0_
  6
CONTINUOUS
 62
    7
 10
1.2973767610389189
 20
12.901037632959884
 11
1.3896034606359535
 21
8.1974759535110309
  0
ARC
  8
_0-0_
  6
CONTINUOUS
 62
    7
 10
0.0453864487253099
 20
-0.5451276783436469
 40
15.014594277153389
 50
67.395617523258849
 51
113.5031213741572
  0
LINE
  8
_0-0_
  6
CONTINUOUS
 62
    7
 10
-5.2046055605521531
 20
21.201440596693161
 11
-6.0346458569254651
 21
13.131604381952485
  0
LINE
  8
_0-0_
  6
CONTINUOUS
 62
    7
 10
5.1708981441144317
 20
20.648080399110938
 11
5.7242583416966397
 21
13.22383108154952
  0
ARC
  8
_0-0_
  6
CONTINUOUS
 62
    7
 10
-0.8786939866639897
 20
18.666387885770817
 40
5.013980773024004
 50
96.766109895067743
 51
149.629021689365
  0
ARC
  8
_0-0_
  6
CONTINUOUS
 62
    7
 10
0.1921280685275803
 20
16.885263760055111
 40
6.9613826807118819
 50
60.660941649008173
 51
103.80872631414091
  0
ARC
  8
_0-0_
  6
CONTINUOUS
 62
    7
 10
2.7270639632509415
 20
20.672177224757576
 40
2.4439529783862532
 50
359.43506737144156
 51
68.996336893433693
  0
ARC
  8
_0-0_
  6
CONTINUOUS
 62
    7
 10
-4.4893632349930215
 20
20.962864686946077
 40
1.3266380566209874
 50
135.4743656020936
 51
232.50746059476472
  0
ARC
  8
_0-0_
  6
CONTINUOUS
 62
    7
 10
-0.2935338070099646
 20
16.767541767153006
 40
7.2600421750806312
 50
86.540624831927758
 51
135.08950710080654
  0
ARC
  8
_0-0_
  6
CONTINUOUS
 62
    7
 10
-0.010924848958723
 20
15.503806848017291
 40
8.5119679855916903
 50
55.190704338217678
 51
88.953456137767645
  0
ARC
  8
_0-0_
  6
CONTINUOUS
 62
    7
 10
4.0795488655495262
 20
21.08615722219686
 40
1.6027475882409044
 50
355.8752333938574
 51
61.345685938073778
  0
ARC
  8
_0-0_
  6
CONTINUOUS
 62
    7
 10
3.8850863671743241
 20
20.886153972489353
 40
1.7950589653134654
 50
315.75034542586161
 51
2.7051452100462519
  0
LINE
  8
_0-0_
  6
CONTINUOUS
 62
    7
 10
-5.6657390585373264
 20
22.262047642059073
 11
-5.8040791079328784
 21
21.293667296290195
  0
LINE
  8
_0-0_
  6
CONTINUOUS
 62
    7
 10
5.6320316420996051
 20
22.169820942462039
 11
5.6781449918981366
 21
21.293667296290195
  0
ARC
  8
_0-0_
  6
CONTINUOUS
 62
    7
 10
-1.5833378979091322
 20
19.988568183428214
 40
4.67276236129283
 50
88.603091978101986
 51
150.88667061578252
  0
ARC
  8
_0-0_
  6
CONTINUOUS
 62
    7
 10
-0.0420064444725767
 20
17.044950930763548
 40
7.7476195018249827
 50
68.328121068059232
 51
100.61679862862806
  0
ARC
  8
_0-0_
  6
CONTINUOUS
 62
    7
 10
2.2047011035903665
 20
20.467965189619335
 40
3.8266052348892559
 50
26.406894828320819
 51
80.760348131907222
  0
LINE
  8
_0-0_
  6
CONTINUOUS
 62
    7
 10
-6.2190992561195486
 20
22.815407839641296
 11
-5.7118524083358437
 21
21.939254193469452
  0
LINE
  8
_0-0_
  6
CONTINUOUS
 62
    7
 10
6.1392784898833099
 20
22.077594242865004
 11
5.7703716914951713
 21
21.478120695484265
  0
LINE
  8
_0-0_
  6
CONTINUOUS
 62
    7
 10
-6.2190992561195486
 20
24.798281880977569
 11
-6.2190992561195486
 21
22.815407839641296
  0
LINE
  8
_0-0_
  6
CONTINUOUS
 62
    7
 10
6.1392784898833099
 20
24.567715131984983
 11
6.1392784898833099
 21
22.077594242865004
  0
ARC
  8
_0-0_
  6
CONTINUOUS
 62
    7
 10
-1.8497014402791478
 20
20.766206377361954
 40
4.8260609099014298
 50
93.699835623110758
 51
154.87391833130715
  0
ARC
  8
_0-0_
  6
CONTINUOUS
 62
    7
 10
-0.2695309618664225
 20
15.282946525198952
 40
10.471529496079198
 50
67.205058493083754
 51
100.40713157261418
  0
ARC
  8
_0-0_
  6
CONTINUOUS
 62
    7
 10
1.920777046522943
 20
20.926935655911763
 40
4.422920961496227
 50
30.68927394207395
 51
65.0355365101492
  0
ARC
  8
_0-0_
  6
CONTINUOUS
 62
    7
 10
13.494357782753184
 20
25.466925453058494
 40
8.0984416684196052
 50
196.37112909446898
 51
204.74096134469889
  0
ARC
  8
_0-0_
  6
CONTINUOUS
 62
    7
 10
-1.0965500704589601
 20
20.554646242723663
 40
6.65198869435077
 50
93.213372775353633
 51
140.36088068418945
  0
ARC
  8
_0-0_
  6
CONTINUOUS
 62
    7
 10
-0.002912462930908
 20
17.82471012743548
 40
9.4855168902809819
 50
65.532054875811511
 51
98.89390921492371
  0
ARC
  8
_0-0_
  6
CONTINUOUS
 62
    7
 10
1.7460122483311977
 20
21.665375372937334
 40
5.2653930856214375
 50
33.450095459330292
 51
65.544207770005002
  0
LINE
  8
_0-0_
  6
CONTINUOUS
 62
    7
 10
-5.0662655111565869
 20
27.196176070500513
 11
-5.6657390585373264
 21
27.196176070500513
  0
LINE
  8
_0-0_
  6
CONTINUOUS
 62
    7
 10
-5.6657390585373264
 20
27.196176070500513
 11
-5.8040791079328784
 21
25.305528728761274
  0
LINE
  8
_0-0_
  6
CONTINUOUS
 62
    7
 10
-4.1901118649847433
 20
28.164556416269392
 11
-4.6973587127684482
 21
28.395123165261978
  0
LINE
  8
_0-0_
  6
CONTINUOUS
 62
    7
 10
-4.6973587127684482
 20
28.395123165261978
 11
-4.6973587127684482
 21
26.089455675336083
  0
LINE
  8
_0-0_
  6
CONTINUOUS
 62
    7
 10
-2.4839179224395878
 20
28.533463214657544
 11
-2.9450514204247611
 21
28.9484833628442
  0
LINE
  8
_0-0_
  6
CONTINUOUS
 62
    7
 10
-2.9450514204247611
 20
28.9484833628442
 11
-2.9911647702232642
 21
26.965609321507927
  0
LINE
  8
_0-0_
  6
CONTINUOUS
 62
    7
 10
-2.4839179224395878
 20
28.533463214657544
 11
-2.4839179224395878
 21
27.057836021104961
  0
LINE
  8
_0-0_
  6
CONTINUOUS
 62
    7
 10
-4.1901118649847433
 20
28.164556416269392
 11
-4.1439985151862402
 21
26.82726927211236
  0
LINE
  8
_0-0_
  6
CONTINUOUS
 62
    7
 10
-0.9621773790884731
 20
29.225163461635304
 11
-1.0544040786855078
 21
27.288402770097548
  0
LINE
  8
_0-0_
  6
CONTINUOUS
 62
    7
 10
1.0206966622478149
 20
28.994596712642718
 11
1.1129233618448495
 21
27.288402770097548
  0
LINE
  8
_0-0_
  6
CONTINUOUS
 62
    7
 10
2.5885505553974326
 20
28.395123165261978
 11
3.049684053382606
 21
28.671803264053096
  0
LINE
  8
_0-0_
  6
CONTINUOUS
 62
    7
 10
3.049684053382606
 20
28.671803264053096
 11
3.2802508023752068
 21
26.735042572515326
  0
LINE
  8
_0-0_
  6
CONTINUOUS
 62
    7
 10
2.6807772549944673
 20
27.84176296767977
 11
2.7268906047929704
 21
27.150062720701996
  0
LINE
  8
_0-0_
  6
CONTINUOUS
 62
    7
 10
4.4330845473381544
 20
27.933989667276805
 11
4.5714245967336922
 21
26.412249123925704
  0
LINE
  8
_0-0_
  6
CONTINUOUS
 62
    7
 10
5.6320316420996051
 20
26.781155922313857
 11
5.9087117408907375
 21
24.936621930373121
  0
ARC
  8
_0-0_
  6
CONTINUOUS
 62
    7
 10
-1.4023297541222917
 20
24.116733790266636
 40
4.7861665233218229
 50
89.147079066275694
 51
139.95382571213906
  0
ARC
  8
_0-0_
  6
CONTINUOUS
 62
    7
 10
-0.3606813163656568
 20
18.855727302994993
 40
10.093399400413464
 50
66.592165284289564
 51
95.517071048632658
  0
ARC
  8
_0-0_
  6
CONTINUOUS
 62
    7
 10
1.6498703332275113
 20
24.031549742802127
 40
4.5497084101268488
 50
23.680664490146054
 51
63.932356661889848
  0
LINE
  8
_0-0_
  6
CONTINUOUS
 62
    7
 10
-4.559018663372882
 20
30.977470753979006
 11
-4.6051320131714135
 21
28.395123165261978
  0
LINE
  8
_0-0_
  6
CONTINUOUS
 62
    7
 10
4.525311246935189
 20
31.023584103777523
 11
4.9403313951218593
 21
27.288402770097548
  0
ARC
  8
_0-0_
  6
CONTINUOUS
 62
    7
 10
0.6643616049194918
 20
22.185582275045959
 40
8.1982864013489962
 50
87.831420111769901
 51
128.74689658823573
  0
ARC
  8
_0-0_
  6
CONTINUOUS
 62
    7
 10
0.8517035392622744
 20
26.286159604813051
 40
4.0936822541621209
 50
37.249808370170236
 51
88.279898231224578
  0
ARC
  8
_0-0_
  6
CONTINUOUS
 62
    7
 10
0.7149475354909213
 20
24.283191009774541
 40
7.1261801462214702
 50
86.055567904252968
 51
134.52796743173502
  0
ARC
  8
_0-0_
  6
CONTINUOUS
 62
    7
 10
0.7209598885575303
 20
27.369101132245063
 40
4.052419692507117
 50
23.648043890449337
 51
83.137806484335755
  0
ARC
  8
_0-0_
  6
CONTINUOUS
 62
    7
 10
0.1108590160728226
 20
26.573461025175291
 40
5.6055969744806902
 50
88.241436242501422
 51
141.60210480266934
  0
ARC
  8
_0-0_
  6
CONTINUOUS
 62
    7
 10
0.3511662949806009
 20
27.099895450041515
 40
5.0769816095712166
 50
38.201632200800141
 51
90.770626944131536
  0
ARC
  8
_0-0_
  6
CONTINUOUS
 62
    7
 10
-1.2042724655307779
 20
29.147347183850428
 40
3.8214754132240842
 50
105.93352481862793
 51
151.38609168955242
  0
ARC
  8
_0-0_
  6
CONTINUOUS
 62
    7
 10
0.6287331889603819
 20
24.913565255473969
 40
8.4172338357726044
 50
88.901311516829097
 51
110.02333289922215
  0
ARC
  8
_0-0_
  6
CONTINUOUS
 62
    7
 10
0.8467235698260822
 20
29.742890616191374
 40
3.5868074806135493
 50
39.78413608409457
 51
90.90406642774154
  0
ARC
  8
_0-0_
  6
CONTINUOUS
 62
    7
 10
2.0351903578148267
 20
29.686296959620122
 40
2.8264888020939112
 50
28.237445538170277
 51
56.30993247401814
  0
LINE
  8
_0-0_
  6
CONTINUOUS
 62
    7
 10
-3.3034823622769522
 20
21.80718007695522
 11
-3.6911869593090785
 21
17.413194643924442
  0
LINE
  8
_0-0_
  6
CONTINUOUS
 62
    7
 10
0.9397290607968784
 20
22.388736972503409
 11
0.8751116279582049
 21
18.080908116590891
  0
ENDBLK
  0
ENDSEC
  0
SECTION
  2
ENTITIES
  0
INSERT
  2
-002-3
  8
_0-0_
 10
147.73600245404666
 20
104.07722526310214
 41
1
 42
1
 50
0
  0
ENDSEC
  0
EOF
