  0
SECTION
  2
HEADER
  9
$ACADVER
  1
AC1009
  9
$INSBASE
 10
0
 20
0
 30
0
  9
$EXTMIN
 10
0
 20
0
  9
$EXTMAX
 10
297
 20
210
  9
$LIMMIN
 10
0
 20
0
  9
$LIMMAX
 10
297
 20
210
  9
$LTSCALE
 40
1
  0
ENDSEC
  0
SECTION
  2
TABLES
  0
TABLE
  2
LTYPE
 70
     9
  0
LTYPE
  2
CONTINUOUS
 70
    64
  3
実線
 72
    65
 73
     0
 40
0.0
  0
LTYPE
  2
DASHED1
 70
    64
  3
--  --  --  --  --  --  --  --  
 72
    65
 73
     2
 40
2.5
 49
1.25
 49
-1.25
  0
LTYPE
  2
DASHED2
 70
    64
  3
----    ----    ----    ----    
 72
    65
 73
     2
 40
5.0
 49
2.5
 49
-2.5
  0
LTYPE
  2
DASHED3
 70
    64
  3
------  ------  ------  ------  
 72
    65
 73
     2
 40
5.0
 49
3.75
 49
-1.25
  0
LTYPE
  2
CENTER1
 70
    64
  3
----- - ----- - ----- - ----- - 
 72
    65
 73
     4
 40
10.0
 49
6.25
 49
-1.25
 49
1.25
 49
-1.25
  0
LTYPE
  2
CENTER2
 70
    64
  3
----------  --  ----------  --  
 72
    65
 73
     4
 40
20.0
 49
12.5
 49
-2.5
 49
2.5
 49
-2.5
  0
LTYPE
  2
PHANTOM1
 70
    64
  3
--- - - --- - - --- - - --- - - 
 72
    65
 73
     6
 40
10.0
 49
3.25
 49
-1.25
 49
1.25
 49
-1.25
 49
1.25
 49
-1.25
  0
LTYPE
  2
PHANTOM2
 70
    64
  3
--------  -  -  --------  -  -  
 72
    65
 73
     6
 40
20.0
 49
10.0
 49
-2.5
 49
1.25
 49
-2.5
 49
1.25
 49
-2.5
  0
LTYPE
  2
DOT
 70
    64
  3
-   -   -   -   -   -   -   -   
 72
    65
 73
     2
 40
2.5
 49
0.625
 49
-1.875
  0
LTYPE
  2
DUMMY
 70
    64
  3
ダミー
 72
    65
 73
     0
 40
0.0
  0
LTYPE
  2
RAND1
 70
    64
  3
ランダム線1
 72
    65
 73
     4
 40
10.0
 49
1.0
 49
-2.0
 49
3.0
 49
-4.0
  0
LTYPE
  2
RAND2
 70
    64
  3
ランダム線2
 72
    65
 73
     4
 40
14.0
 49
2.0
 49
-3.0
 49
4.0
 49
-5.0
  0
LTYPE
  2
RAND3
 70
    64
  3
ランダム線3
 72
    65
 73
     4
 40
18.0
 49
3.0
 49
-4.0
 49
5.0
 49
-6.0
  0
LTYPE
  2
RAND4
 70
    64
  3
ランダム線4
 72
    65
 73
     4
 40
22.0
 49
4.0
 49
-5.0
 49
6.0
 49
-7.0
  0
LTYPE
  2
RAND5
 70
    64
  3
ランダム線5
 72
    65
 73
     4
 40
26.0
 49
5.0
 49
-6.0
 49
7.0
 49
-8.0
  0
LTYPE
  2
LONG1
 70
    64
  3
----------  --  ----------  --  
 72
    65
 73
     4
 40
40.0
 49
32.5
 49
-2.5
 49
2.5
 49
-2.5
  0
LTYPE
  2
LONG2
 70
    64
  3
--------  -  -  --------  -  -  
 72
    65
 73
     6
 40
40.0
 49
30.0
 49
-2.5
 49
1.25
 49
-2.5
 49
1.25
 49
-2.5
  0
LTYPE
  2
LONG3
 70
    64
  3
+++++++++++++++..+++++++++++++++
 72
    65
 73
     2
 40
40.0
 49
37.5
 49
-2.5
  0
LTYPE
  2
LONG4
 70
    64
  3
+++++++++++++++..+++++++++++++++
 72
    65
 73
     2
 40
80.0
 49
75.0
 49
-5.0
  0
LTYPE
  2
LONG5
 70
    64
  3
----------  --  ----------  --  
 72
    65
 73
     4
 40
60.0
 49
37.5
 49
-7.5
 49
7.5
 49
-7.5
  0
LTYPE
  2
dashed
 70
   64
  3
-------   -------------   ------
 72
   65
 73
    2
 40
7.5
 49
6
 49
-1.5
  0
LTYPE
  2
dashed_spaced
 70
   64
  3
----        --------        ----
 72
   65
 73
    2
 40
12
 49
6
 49
-6
  0
LTYPE
  2
long_dashed_dotted
 70
   64
  3
------------- --- --------------
 72
   65
 73
    4
 40
15.25
 49
12
 49
-1.5
 49
0.25
 49
-1.5
  0
LTYPE
  2
long_dashed_double-dotted
 70
   64
  3
----------- --- --- ------------
 72
   65
 73
    6
 40
17
 49
12
 49
-1.5
 49
0.25
 49
-1.5
 49
0.25
 49
-1.5
  0
LTYPE
  2
long_dashed_triplicate-dotted
 70
   64
  3
--------- --- --- --- ----------
 72
   65
 73
    8
 40
18.75
 49
12
 49
-1.5
 49
0.25
 49
-1.5
 49
0.25
 49
-1.5
 49
0.25
 49
-1.5
  0
LTYPE
  2
dotted
 70
   64
  3
   -       -       -       -    
 72
   65
 73
    2
 40
1.75
 49
0.25
 49
-1.5
  0
LTYPE
  2
chain
 70
   64
  3
-------------- -- --------------
 72
   65
 73
    4
 40
18.5
 49
12
 49
-1.5
 49
3.5
 49
-1.5
  0
LTYPE
  2
chain_double_dash
 70
   64
  3
------------ -- -- -------------
 72
   65
 73
    6
 40
23.5
 49
12
 49
-1.5
 49
3.5
 49
-1.5
 49
3.5
 49
-1.5
  0
LTYPE
  2
dashed_dotted
 70
   64
  3
-----------     -     ----------
 72
   65
 73
    4
 40
9.25
 49
6
 49
-1.5
 49
0.25
 49
-1.5
  0
LTYPE
  2
double-dashed_dotted
 70
   64
  3
------   -----------   -   -----
 72
   65
 73
    6
 40
16.75
 49
6
 49
-1.5
 49
6
 49
-1.5
 49
0.25
 49
-1.5
  0
LTYPE
  2
dashed_double-dotted
 70
   64
  3
---------    -    -    ---------
 72
   65
 73
    6
 40
11
 49
6
 49
-1.5
 49
0.25
 49
-1.5
 49
0.25
 49
-1.5
  0
LTYPE
  2
double-dashed_double-dotted
 70
   64
  3
-----   ---------   -   -   ----
 72
   65
 73
    8
 40
18.5
 49
6
 49
-1.5
 49
6
 49
-1.5
 49
0.25
 49
-1.5
 49
0.25
 49
-1.5
  0
LTYPE
  2
dashed_triplicate-dotted
 70
   64
  3
-------    -    -    -    ------
 72
   65
 73
    8
 40
12.75
 49
6
 49
-1.5
 49
0.25
 49
-1.5
 49
0.25
 49
-1.5
 49
0.25
 49
-1.5
  0
LTYPE
  2
double-dashed_triplicate-dotted
 70
   64
  3
-----  ---------  -  -  -  -----
 72
   65
 73
   10
 40
20.25
 49
6
 49
-1.5
 49
6
 49
-1.5
 49
0.25
 49
-1.5
 49
0.25
 49
-1.5
 49
0.25
 49
-1.5
  0
LTYPE
  2
undefined
 70
   64
  3
--------------------------------
 72
   65
 73
    0
 40
0
  0
LTYPE
  2
_
 70
   64
  3
                                
 72
   65
 73
    0
 40
0
  0
LTYPE
  2
__18
 70
   64
  3
                                
 72
   65
 73
    0
 40
0
  0
LTYPE
  2
__19
 70
   64
  3
                                
 72
   65
 73
    0
 40
0
  0
LTYPE
  2
__20
 70
   64
  3
                                
 72
   65
 73
    0
 40
0
  0
LTYPE
  2
__21
 70
   64
  3
                                
 72
   65
 73
    0
 40
0
  0
LTYPE
  2
__22
 70
   64
  3
                                
 72
   65
 73
    0
 40
0
  0
LTYPE
  2
__23
 70
   64
  3
                                
 72
   65
 73
    0
 40
0
  0
LTYPE
  2
__24
 70
   64
  3
                                
 72
   65
 73
    0
 40
0
  0
LTYPE
  2
__25
 70
   64
  3
                                
 72
   65
 73
    0
 40
0
  0
LTYPE
  2
__26
 70
   64
  3
                                
 72
   65
 73
    0
 40
0
  0
LTYPE
  2
__27
 70
   64
  3
                                
 72
   65
 73
    0
 40
0
  0
LTYPE
  2
__28
 70
   64
  3
                                
 72
   65
 73
    0
 40
0
  0
LTYPE
  2
__29
 70
   64
  3
                                
 72
   65
 73
    0
 40
0
  0
LTYPE
  2
__30
 70
   64
  3
                                
 72
   65
 73
    0
 40
0
  0
LTYPE
  2
__31
 70
   64
  3
                                
 72
   65
 73
    0
 40
0
  0
LTYPE
  2
__32
 70
   64
  3
                                
 72
   65
 73
    0
 40
0
  0
ENDTAB
  0
TABLE
  2
STYLE
  5
3
100
AcDbSymbolTable
 70
     1
  0
STYLE
  5
10
100
AcDbSymbolTableRecord
100
AcDbTextStyleTableRecord
  2
STANDARD
 70
     0
 40
0.0
 41
1.0
 50
0.0
 71
     0
 42
0.2
  3
txt
  4
bigfont.shx
  0
STYLE
  5
26
100
AcDbSymbolTableRecord
100
AcDbTextStyleTableRecord
  2
TATEGAKI
 70
    68
 40
0.0
 41
1.0
 50
0.0
 71
     0
 42
1.0
  3
txt
  4
bigfont.shx
  0
ENDTAB
  0
TABLE
  2
LAYER
 70
    2
  0
LAYER
  2
_0-0_
 70
   64
 62
    7
  6
CONTINUOUS
  0
LAYER
  2
ADD_LINE
 70
   64
 62
    7
  6
CONTINUOUS
  0
ENDTAB
  0
ENDSEC
  0
SECTION
  2
BLOCKS
  0
BLOCK
  2
-002-2
 70
   64
 10
0
 20
0
 30
0
  0
ARC
  8
_0-0_
  6
CONTINUOUS
 62
    7
 10
17.528595911155406
 20
-13.148436786873921
 40
0.482261406207303
 50
241.67289226183448
 51
302.73230406169762
  0
ARC
  8
_0-0_
  6
CONTINUOUS
 62
    7
 10
18.761973238456534
 20
-12.821599368401086
 40
1.6439561450620157
 50
191.16191495214841
 51
207.19610109947456
  0
ARC
  8
_0-0_
  6
CONTINUOUS
 62
    7
 10
18.579855235587956
 20
-12.916274286623141
 40
1.4481028647556033
 50
141.25601704504601
 51
188.88114859867829
  0
ARC
  8
_0-0_
  6
CONTINUOUS
 62
    7
 10
19.546308389726534
 20
-12.882843211463046
 40
2.2703904160500272
 50
122.79383817917879
 51
157.39039206982082
  0
ARC
  8
_0-0_
  6
CONTINUOUS
 62
    7
 10
20.010902145805716
 20
-13.458477292347032
 40
3.006947032781278
 50
106.73270769314728
 51
124.29503316192135
  0
ARC
  8
_0-0_
  6
CONTINUOUS
 62
    7
 10
19.276995979166173
 20
-10.993127407787744
 40
0.4347430816104624
 50
72.349875780065503
 51
107.65012421993451
  0
ARC
  8
_0-0_
  6
CONTINUOUS
 62
    7
 10
19.022780001120225
 20
-10.701249803364609
 40
0.4049719502279565
 50
358.66778014612976
 51
17.592424562185666
  0
ARC
  8
_0-0_
  6
CONTINUOUS
 62
    7
 10
-13.685297995586268
 20
8.5774734196663278
 40
0.6884526987246528
 50
336.41923096651431
 51
54.998044691516036
  0
ARC
  8
_0-0_
  6
CONTINUOUS
 62
    7
 10
-14.212802112572405
 20
8.9909000875173124
 40
1.3477929392038002
 50
293.10795477351979
 51
329.26389555790013
  0
ARC
  8
_0-0_
  6
CONTINUOUS
 62
    7
 10
-13.784993128466709
 20
8.2281797630765343
 40
0.4875437900308152
 50
202.73372623538518
 51
281.97432303713822
  0
ARC
  8
_0-0_
  6
CONTINUOUS
 62
    7
 10
-13.4688730540027
 20
8.3291486074483121
 40
0.8186392747525134
 50
147.06814958942874
 51
200.70084327800254
  0
LINE
  8
_0-0_
  6
CONTINUOUS
 62
    7
 10
-20.645581394921095
 20
2.0893845291951236
 11
-20.566581004956191
 21
3.5113915485633895
  0
LINE
  8
_0-0_
  6
CONTINUOUS
 62
    7
 10
-20.566581004956191
 20
3.5113915485633895
 11
-22.462590364113879
 21
4.9333985679316275
  0
LINE
  8
_0-0_
  6
CONTINUOUS
 62
    7
 10
-22.462590364113879
 20
4.9333985679316275
 11
-22.462590364113879
 21
8.8044176762119069
  0
LINE
  8
_0-0_
  6
CONTINUOUS
 62
    7
 10
-22.462590364113879
 20
8.8044176762119069
 11
-22.225589194219168
 21
9.0414188461066178
  0
LINE
  8
_0-0_
  6
CONTINUOUS
 62
    7
 10
-22.225589194219168
 20
9.0414188461066178
 11
-19.539575935412472
 21
22.076483190315635
  0
LINE
  8
_0-0_
  6
CONTINUOUS
 62
    7
 10
-17.959568136114399
 20
23.65649098961368
 11
15.931599158829044
 21
6.8294079270893153
  0
LINE
  8
_0-0_
  6
CONTINUOUS
 62
    7
 10
17.669607738056925
 20
2.9583888188090639
 11
11.507577320794496
 21
-17.34471140217105
  0
LINE
  8
_0-0_
  6
CONTINUOUS
 62
    7
 10
15.378596429074747
 20
5.2494001277912421
 11
-17.722566966219688
 21
22.076483190315635
  0
LINE
  8
_0-0_
  6
CONTINUOUS
 62
    7
 10
-21.277584514640324
 20
9.831422745755626
 11
-19.06557359562305
 21
21.523480460561309
  0
LINE
  8
_0-0_
  6
CONTINUOUS
 62
    7
 10
-21.277584514640324
 20
9.831422745755626
 11
-11.402535769027423
 21
15.203449263369047
  0
LINE
  8
_0-0_
  6
CONTINUOUS
 62
    7
 10
-11.402535769027423
 20
15.203449263369047
 11
-10.454531089448608
 21
15.28244965333395
  0
LINE
  8
_0-0_
  6
CONTINUOUS
 62
    7
 10
-10.454531089448608
 20
15.28244965333395
 11
-10.217529919553897
 21
14.571446143649817
  0
LINE
  8
_0-0_
  6
CONTINUOUS
 62
    7
 10
-10.217529919553897
 20
14.571446143649817
 11
-20.645581394921095
 21
8.9624184561416858
  0
LINE
  8
_0-0_
  6
CONTINUOUS
 62
    7
 10
-20.645581394921095
 20
8.9624184561416858
 11
-20.96158295478071
 21
9.1994196260364252
  0
LINE
  8
_0-0_
  6
CONTINUOUS
 62
    7
 10
-20.96158295478071
 20
9.1994196260364252
 11
-20.645581394921095
 21
9.7524223557907224
  0
LINE
  8
_0-0_
  6
CONTINUOUS
 62
    7
 10
-20.645581394921095
 20
9.7524223557907224
 11
-21.277584514640324
 21
9.831422745755626
  0
LINE
  8
_0-0_
  6
CONTINUOUS
 62
    7
 10
-20.645581394921095
 20
9.7524223557907224
 11
-10.454531089448608
 21
15.28244965333395
  0
LINE
  8
_0-0_
  6
CONTINUOUS
 62
    7
 10
-20.645581394921095
 20
8.9624184561416858
 11
-21.172250661353786
 21
4.0907277416393217
  0
LINE
  8
_0-0_
  6
CONTINUOUS
 62
    7
 10
-21.277584514640324
 20
9.831422745755626
 11
-21.962254561002823
 21
4.6700639347152819
  0
LINE
  8
_0-0_
  6
CONTINUOUS
 62
    7
 10
-8.7428559735423619
 20
17.415460182386319
 11
-9.6908606531212058
 21
11.990766738129659
  0
LINE
  8
_0-0_
  6
CONTINUOUS
 62
    7
 10
-9.6908606531212058
 20
11.990766738129659
 11
-9.4801929465481294
 21
11.148095911837354
  0
LINE
  8
_0-0_
  6
CONTINUOUS
 62
    7
 10
-9.4801929465481294
 20
11.148095911837354
 11
-9.269525239975053
 21
9.6207550391825496
  0
LINE
  8
_0-0_
  6
CONTINUOUS
 62
    7
 10
-20.566581004956191
 20
3.5113915485633895
 11
-9.269525239975053
 21
9.6207550391825496
  0
LINE
  8
_0-0_
  6
CONTINUOUS
 62
    7
 10
27.228654923810211
 20
5.9867371007970096
 11
-6.9521804676712131
 21
21.997482800350703
  0
LINE
  8
_0-0_
  6
CONTINUOUS
 62
    7
 10
-6.9521804676712131
 20
21.997482800350703
 11
-17.959568136114399
 21
23.65649098961368
  0
ARC
  8
_0-0_
  6
CONTINUOUS
 62
    7
 10
-17.58826630327934
 20
21.705181357480548
 40
1.986321809657791
 50
100.77363818777644
 51
169.22636181222276
  0
ARC
  8
_0-0_
  6
CONTINUOUS
 62
    7
 10
-18.113989610349961
 20
21.119785911193652
 40
1.0336737252234709
 50
67.748591577301028
 51
157.01167852661899
  0
ARC
  8
_0-0_
  6
CONTINUOUS
 62
    7
 10
14.570406741363541
 20
3.8925855656890263
 40
3.2369384269377708
 50
343.22553972808578
 51
65.132674565292803
  0
ARC
  8
_0-0_
  6
CONTINUOUS
 62
    7
 10
26.027328334711484
 20
3.9505496098891881
 40
2.3641584278142225
 50
338.65551228039357
 51
59.459896739863566
  0
LINE
  8
_0-0_
  6
CONTINUOUS
 62
    7
 10
10.42790532460748
 20
-17.02870984231145
 11
16.800603448442985
 21
2.9320553554874293
  0
LINE
  8
_0-0_
  6
CONTINUOUS
 62
    7
 10
28.229326530032324
 20
3.0900561354172367
 11
24.068639325214093
 21
-10.708678645119184
  0
LINE
  8
_0-0_
  6
CONTINUOUS
 62
    7
 10
-9.269525239975053
 20
9.6207550391825496
 11
14.430591749495903
 21
-3.8619781814942571
  0
LINE
  8
_0-0_
  6
CONTINUOUS
 62
    7
 10
10.585906104537287
 20
-11.867351031271104
 11
12.060580050548793
 21
-11.656683324698028
  0
LINE
  8
_0-0_
  6
CONTINUOUS
 62
    7
 10
10.585906104537287
 20
-11.867351031271104
 11
11.744578490689179
 21
-12.341353371060526
  0
LINE
  8
_0-0_
  6
CONTINUOUS
 62
    7
 10
10.585906104537287
 20
-11.867351031271104
 11
9.0585652318824827
 21
-17.924047595247011
  0
ARC
  8
_0-0_
  6
CONTINUOUS
 62
    7
 10
15.696502960436277
 20
-18.463271425432318
 40
4.3356976993428011
 50
165.04926141678433
 51
199.57315767517755
  0
ARC
  8
_0-0_
  6
CONTINUOUS
 62
    7
 10
12.460014501531589
 20
-19.592433924053061
 40
0.9081782618713994
 50
200.85669939542387
 51
281.92238127264528
  0
ARC
  8
_0-0_
  6
CONTINUOUS
 62
    7
 10
12.296731522831323
 20
-18.688873340115414
 40
1.8261777775670658
 50
281.07828872704658
 51
317.38202695297622
  0
ARC
  8
_0-0_
  6
CONTINUOUS
 62
    7
 10
13.710463252419714
 20
-18.033439291513368
 40
3.4328803963343359
 50
162.98163244039682
 51
203.24387441279856
  0
ARC
  8
_0-0_
  6
CONTINUOUS
 62
    7
 10
11.879430933938835
 20
-19.19805027993079
 40
1.3368071015854264
 50
188.17804034290822
 51
246.55529848262978
  0
LINE
  8
_0-0_
  6
CONTINUOUS
 62
    7
 10
11.347563792075761
 20
-20.424496597653508
 11
12.647631780648936
 21
-20.481021292808869
  0
ARC
  8
_0-0_
  6
CONTINUOUS
 62
    7
 10
10.688913886300526
 20
-18.443412749181256
 40
1.7110747786358849
 50
162.33016067239544
 51
221.47411711478205
  0
ARC
  8
_0-0_
  6
CONTINUOUS
 62
    7
 10
13.80939175909603
 20
-18.360799092162715
 40
3.7030234320191595
 50
160.85022721213957
 51
195.19990476609604
  0
ARC
  8
_0-0_
  6
CONTINUOUS
 62
    7
 10
9.9250256306659708
 20
-17.862043750610631
 40
1.7911630530950575
 50
253.18529843208324
 51
272.1099428481333
  0
ARC
  8
_0-0_
  6
CONTINUOUS
 62
    7
 10
9.5440073151742979
 20
-19.056389624171096
 40
0.7446605504191082
 50
306.88600553957707
 51
338.30328119760753
  0
LINE
  8
_0-0_
  6
CONTINUOUS
 62
    7
 10
10.235911454020425
 20
-19.331685824649959
 11
10.499693364745411
 21
-19.350527389701746
  0
LINE
  8
_0-0_
  6
CONTINUOUS
 62
    7
 10
8.9358434654472489
 20
-18.257716616698211
 11
7.2966273059419668
 21
-17.918568445766077
  0
LINE
  8
_0-0_
  6
CONTINUOUS
 62
    7
 10
7.428518261304446
 20
-18.917171393510692
 11
9.4068825917418906
 21
-19.576626170323173
  0
ARC
  8
_0-0_
  6
CONTINUOUS
 62
    7
 10
-9.6224540849291884
 20
-10.700204020631849
 40
14.02527901122731
 50
111.43532958429749
 51
157.16386539123195
  0
ARC
  8
_0-0_
  6
CONTINUOUS
 62
    7
 10
-11.296229087159787
 20
-10.438467120207383
 40
12.387850307593228
 50
155.27476863414805
 51
181.6559900585622
  0
ARC
  8
_0-0_
  6
CONTINUOUS
 62
    7
 10
-16.508101358937864
 20
-10.113416557330629
 40
7.2032616275954942
 50
185.44117578981567
 51
247.12935846046219
  0
ARC
  8
_0-0_
  6
CONTINUOUS
 62
    7
 10
-11.74564310001432
 20
-5.2644423197590751
 40
13.751769510924747
 50
236.640239296034
 51
268.48098515873824
  0
ARC
  8
_0-0_
  6
CONTINUOUS
 62
    7
 10
-10.063407845821473
 20
16.945561856495068
 40
36.0151482986007
 50
266.74206828858473
 51
286.32755133882034
  0
ARC
  8
_0-0_
  6
CONTINUOUS
 62
    7
 10
-8.389904409213699
 20
7.0948033441785956
 40
26.117120868924125
 50
288.88047753918943
 51
309.76047421597224
  0
ARC
  8
_0-0_
  6
CONTINUOUS
 62
    7
 10
7.2698801891201859
 20
-12.411429323601999
 40
1.1899481208302813
 50
331.34346514194675
 51
77.731991811207607
  0
ARC
  8
_0-0_
  6
CONTINUOUS
 62
    7
 10
6.4864400087151912
 20
-13.980681349942904
 40
2.921961668998279
 50
69.227745317953463
 51
110.77225468204603
  0
ARC
  8
_0-0_
  6
CONTINUOUS
 62
    7
 10
-2.9199685397153705
 20
-2.4927654706367179
 40
12.112990606006333
 50
287.02565345977234
 51
313.70962050852484
  0
ARC
  8
_0-0_
  6
CONTINUOUS
 62
    7
 10
-7.3393582257937746
 20
2.5113760900072832
 40
18.400067680452342
 50
271.33736726015479
 51
295.65409930143699
  0
ARC
  8
_0-0_
  6
CONTINUOUS
 62
    7
 10
-7.8201765497861979
 20
-1.3942070172348822
 40
14.518036737564374
 50
246.95010712955769
 51
273.59473576763946
  0
ARC
  8
_0-0_
  6
CONTINUOUS
 62
    7
 10
-10.322199340221687
 20
-5.1058925461051867
 40
10.158594776249958
 50
221.32492466396835
 51
251.7443166433211
  0
ARC
  8
_0-0_
  6
CONTINUOUS
 62
    7
 10
-11.758104201479057
 20
-7.634603056975342
 40
7.4712353778436009
 50
165.96155396965747
 51
214.0132891803693
  0
ARC
  8
_0-0_
  6
CONTINUOUS
 62
    7
 10
-10.132474175210547
 20
-7.77289088084631
 40
9.0855838667513265
 50
126.52010962630105
 51
167.60250928778785
  0
ARC
  8
_0-0_
  6
CONTINUOUS
 62
    7
 10
-74.532289713990394
 20
83.693991878552268
 40
102.78112593170196
 50
305.02729925698122
 51
307.02744751322564
  0
ARC
  8
_0-0_
  6
CONTINUOUS
 62
    7
 10
-13.759578052623368
 20
-0.1432709403061012
 40
2.6866561119547097
 50
76.395549236017146
 51
111.58627696084341
  0
ARC
  8
_0-0_
  6
CONTINUOUS
 62
    7
 10
-13.233431844714659
 20
1.8462332935565171
 40
0.6307092659243454
 50
340.81558518176143
 51
80.342868563216086
  0
ARC
  8
_0-0_
  6
CONTINUOUS
 62
    7
 10
6.5678355697388886
 20
-12.556259032028143
 40
2.5953052090859607
 50
49.923876391848033
 51
107.45625866011173
  0
ARC
  8
_0-0_
  6
CONTINUOUS
 62
    7
 10
6.9355441786809129
 20
-11.818119629820179
 40
1.8042002322908832
 50
319.82395025518969
 51
43.755870961301476
  0
ARC
  8
_0-0_
  6
CONTINUOUS
 62
    7
 10
6.4213509658090961
 20
-14.151968304959373
 40
4.1202577691366962
 50
98.824031885557574
 51
120.66964132529505
  0
ARC
  8
_0-0_
  6
CONTINUOUS
 62
    7
 10
-4.4520524311167273
 20
-0.7286092320061556
 40
13.211590198894729
 50
281.81333796879505
 51
311.60111010207504
  0
ARC
  8
_0-0_
  6
CONTINUOUS
 62
    7
 10
-8.2389015932973564
 20
3.8314515456608631
 40
18.65756060294067
 50
261.90351582893436
 51
290.36092916642406
  0
ARC
  8
_0-0_
  6
CONTINUOUS
 62
    7
 10
-10.719685780431462
 20
-5.0074181834921827
 40
9.6338388469892227
 50
224.32241294136577
 51
269.125970061462
  0
ARC
  8
_0-0_
  6
CONTINUOUS
 62
    7
 10
-12.258215918161881
 20
-7.1113438750234561
 40
7.0762323472404711
 50
189.74728851189101
 51
220.8367538021518
  0
ARC
  8
_0-0_
  6
CONTINUOUS
 62
    7
 10
-15.657940563912234
 20
-8.8746172209092204
 40
8.3257516309648381
 50
151.32988578568589
 51
197.38086980274187
  0
ARC
  8
_0-0_
  6
CONTINUOUS
 62
    7
 10
-10.900228541679553
 20
-9.6561325713182864
 40
12.973748651225668
 50
134.21973063467672
 51
158.40013431336357
  0
ARC
  8
_0-0_
  6
CONTINUOUS
 62
    7
 10
-6.6153241858718852
 20
-13.580401239845335
 40
18.777470936512856
 50
119.69085282554065
 51
135.23901972780305
  0
ARC
  8
_0-0_
  6
CONTINUOUS
 62
    7
 10
-11.774804839476843
 20
-5.430379129437787
 40
9.1527017132659285
 50
103.06357325918995
 51
116.90263978460949
  0
ARC
  8
_0-0_
  6
CONTINUOUS
 62
    7
 10
-13.713298837152252
 20
1.8151381232615704
 40
1.6753866998890641
 50
27.203861261437293
 51
94.460911979407797
  0
ARC
  8
_0-0_
  6
CONTINUOUS
 62
    7
 10
-13.571600172607617
 20
2.6121031067877225
 40
1.348723517038718
 50
313.82012570352151
 51
358.68088531049284
  0
LINE
  8
_0-0_
  6
CONTINUOUS
 62
    7
 10
-20.645581394921095
 20
2.0893845291951236
 11
-20.670735769205208
 21
1.8124304857672171
  0
ARC
  8
_0-0_
  6
CONTINUOUS
 62
    7
 10
-15.583822141775499
 20
-9.2718050643219012
 40
12.195776645330522
 50
114.65191855076095
 51
142.1841921388833
  0
ARC
  8
_0-0_
  6
CONTINUOUS
 62
    7
 10
-19.472356733631017
 20
-9.544653636166279
 40
9.6480298355922436
 50
126.55238703755532
 51
157.62140378259193
  0
ARC
  8
_0-0_
  6
CONTINUOUS
 62
    7
 10
-20.947201218442984
 20
-11.997368311853938
 40
9.6425560720328996
 50
140.55741779144705
 51
180.63792653211661
  0
ARC
  8
_0-0_
  6
CONTINUOUS
 62
    7
 10
-22.26630830350561
 20
-13.264706322788788
 40
8.4032975473818787
 50
172.06562624297979
 51
235.85935170617645
  0
ARC
  8
_0-0_
  6
CONTINUOUS
 62
    7
 10
-15.623481826373279
 20
-7.032438178441657
 40
17.404967316661473
 50
229.25992388134318
 51
267.06327939055836
  0
ARC
  8
_0-0_
  6
CONTINUOUS
 62
    7
 10
-14.228950156275971
 20
14.064581647823823
 40
38.546988414500312
 50
266.59976422663919
 51
291.70785468104947
  0
ARC
  8
_0-0_
  6
CONTINUOUS
 62
    7
 10
-10.523553750207469
 20
7.085769693829528
 40
30.704654023017142
 50
290.10036824289
 51
305.47684794143981
  0
ARC
  8
_0-0_
  6
CONTINUOUS
 62
    7
 10
-11.922040697391935
 20
6.3370719247837801
 40
31.81541980853947
 50
285.13108004642203
 51
307.46041904119625
  0
ARC
  8
_0-0_
  6
CONTINUOUS
 62
    7
 10
-11.13950171584915
 20
2.8616479906904799
 40
28.256627607205814
 50
266.96806243346833
 51
285.4388333699153
  0
ARC
  8
_0-0_
  6
CONTINUOUS
 62
    7
 10
-12.969905660452213
 20
-3.5245737522207237
 40
21.833435471451317
 50
240.94954614477842
 51
270.88134674072592
  0
ARC
  8
_0-0_
  6
CONTINUOUS
 62
    7
 10
-5.7966166167047968
 20
-5.4350946633835004
 40
1.2555193891758767
 50
113.26180760404296
 51
179.35805734399779
  0
ARC
  8
_0-0_
  6
CONTINUOUS
 62
    7
 10
-4.8365738145871839
 20
-6.1567092531069303
 40
2.3739229796201844
 50
94.247680654234998
 51
127.82734139660769
  0
ARC
  8
_0-0_
  6
CONTINUOUS
 62
    7
 10
-4.5136822960593017
 20
-8.8596629272151315
 40
5.0948242722500279
 50
76.012587159638713
 51
95.617580590126465
  0
ARC
  8
_0-0_
  6
CONTINUOUS
 62
    7
 10
-3.6126760198625907
 20
-4.5453980385377886
 40
0.7109586010327055
 50
348.30036958483356
 51
62.302387666005572
  0
ARC
  8
_0-0_
  6
CONTINUOUS
 62
    7
 10
-4.7768156696566004
 20
-3.9088020866002666
 40
2.0175262031297847
 50
285.05380853218014
 51
337.23258949663875
  0
ARC
  8
_0-0_
  6
CONTINUOUS
 62
    7
 10
-5.8282663794119296
 20
5.0436142729174751
 40
11.013965876819322
 50
269.3414042571635
 51
278.22388663602879
  0
ARC
  8
_0-0_
  6
CONTINUOUS
 62
    7
 10
-5.7845037445575835
 20
-4.1730115332085997
 40
1.8046715547793934
 50
237.93412829291631
 51
264.58319081669845
  0
ARC
  8
_0-0_
  6
CONTINUOUS
 62
    7
 10
-6.5353683950162074
 20
-5.1635414147903926
 40
0.5772925771257355
 50
206.48891065111164
 51
248.96371133669868
  0
ARC
  8
_0-0_
  6
CONTINUOUS
 62
    7
 10
-6.0903202540895913
 20
-4.6207229102222893
 40
1.2511699969508074
 50
154.63308082355138
 51
219.76538645318314
  0
ARC
  8
_0-0_
  6
CONTINUOUS
 62
    7
 10
-5.5290946387001165
 20
-4.8765492575594518
 40
1.8679063037958019
 50
104.95514354075551
 51
154.91762275318391
  0
ARC
  8
_0-0_
  6
CONTINUOUS
 62
    7
 10
-4.7383143136876251
 20
-6.8752805113504021
 40
4.0106948485859872
 50
74.224763700915531
 51
108.50309136229139
  0
ARC
  8
_0-0_
  6
CONTINUOUS
 62
    7
 10
-4.0362959823027618
 20
-4.3036630264864097
 40
1.3452882897523264
 50
25.097730896221453
 51
73.221553691202686
  0
ARC
  8
_0-0_
  6
CONTINUOUS
 62
    7
 10
-4.1110053806334017
 20
-4.1561781258827946
 40
1.3604596744497772
 50
308.28222620623728
 51
18.121030231152719
  0
LINE
  8
_0-0_
  6
CONTINUOUS
 62
    7
 10
-10.217529919553897
 20
14.571446143649817
 11
-9.269525239975053
 21
9.6207550391825496
  0
ARC
  8
_0-0_
  6
CONTINUOUS
 62
    7
 10
-9.0709328894429291
 20
21.090941151591927
 40
0.1400783734418843
 50
100.49147701234769
 51
249.98123960620106
  0
ARC
  8
_0-0_
  6
CONTINUOUS
 62
    7
 10
-7.6335375700579684
 20
23.079425009901151
 40
2.5886439760408444
 50
234.98479022011043
 51
262.94018772904764
  0
ARC
  8
_0-0_
  6
CONTINUOUS
 62
    7
 10
3.9017489879382192
 20
81.538979063894757
 40
62.169049770550089
 50
259.00842053975509
 51
260.52197393339884
  0
ARC
  8
_0-0_
  6
CONTINUOUS
 62
    7
 10
-6.7270710222567525
 20
20.825310675221751
 40
0.7220427157700783
 50
302.83280180624052
 51
332.14630403775351
  0
ARC
  8
_0-0_
  6
CONTINUOUS
 62
    7
 10
-7.395154381617119
 20
18.660978545649535
 40
2.2460490910313027
 50
54.431493543335385
 51
79.517522439607617
  0
ARC
  8
_0-0_
  6
CONTINUOUS
 62
    7
 10
-10.673699669720179
 20
6.1311828375834327
 40
15.192581672170506
 50
75.95428080407784
 51
81.052593160751456
  0
ARC
  8
_0-0_
  6
CONTINUOUS
 62
    7
 10
-8.9280949920725732
 20
19.219764696039938
 40
2.0159542071910015
 50
72.170265774320413
 51
94.790130722363713
  0
ARC
  8
_0-0_
  6
CONTINUOUS
 62
    7
 10
3.3254160768395304
 20
17.965431899803612
 40
2.5507672164518929
 50
219.71823292689817
 51
252.90163202114314
  0
ARC
  8
_0-0_
  6
CONTINUOUS
 62
    7
 10
4.4466833245763828
 20
20.184667042823527
 40
5.0191211246150349
 50
248.11039145340135
 51
268.11229246734251
  0
ARC
  8
_0-0_
  6
CONTINUOUS
 62
    7
 10
4.3935794791079266
 20
15.482513138412836
 40
0.333683114604818
 50
250.34617594194799
 51
340.34617594194799
  0
ARC
  8
_0-0_
  6
CONTINUOUS
 62
    7
 10
4.1130050378446006
 20
15.044817010042076
 40
0.6780387745600297
 50
28.686147573741749
 51
77.574057134569131
  0
ARC
  8
_0-0_
  6
CONTINUOUS
 62
    7
 10
2.2389352773343769
 20
12.332206561194321
 40
3.9331055227902825
 50
59.097342426662266
 51
75.121554260839915
  0
ARC
  8
_0-0_
  6
CONTINUOUS
 62
    7
 10
1.7494459446425021
 20
12.358784359013564
 40
4.0615562444568543
 50
68.335788095162471
 51
84.672745343247726
  0
ARC
  8
_0-0_
  6
CONTINUOUS
 62
    7
 10
1.9020784406900186
 20
15.617188870219204
 40
0.8170451058080641
 50
74.054604099078787
 51
110.92450174492215
  0
ARC
  8
_0-0_
  6
CONTINUOUS
 62
    7
 10
1.3858214687655841
 20
16.913442788855697
 40
0.5784190285887282
 50
267.77603875961466
 51
292.83365417790964
  0
ARC
  8
_0-0_
  6
CONTINUOUS
 62
    7
 10
13.76986717077898
 20
10.3736776757983
 40
0.3241029575901923
 50
146.64343149875657
 51
248.06461777376336
  0
ARC
  8
_0-0_
  6
CONTINUOUS
 62
    7
 10
18.225632219629261
 20
18.831235898317495
 40
9.8819770532477893
 50
242.40944448819579
 51
250.18526360987138
  0
ARC
  8
_0-0_
  6
CONTINUOUS
 62
    7
 10
19.918698562345241
 20
22.418313326447965
 40
13.835726013444809
 50
248.62435970829233
 51
254.50574264586209
  0
ARC
  8
_0-0_
  6
CONTINUOUS
 62
    7
 10
16.941937347416115
 20
10.949499022612438
 40
1.9980628567027801
 50
248.8986729850709
 51
282.07335009892768
  0
ARC
  8
_0-0_
  6
CONTINUOUS
 62
    7
 10
17.322009615749238
 20
9.1505531596602143
 40
0.1594778164309345
 50
283.72944169068194
 51
64.84937203431555
  0
ARC
  8
_0-0_
  6
CONTINUOUS
 62
    7
 10
16.157997368486747
 20
8.2113010329590086
 40
1.6405848740826321
 50
41.338208338886524
 51
81.44087232918281
  0
ARC
  8
_0-0_
  6
CONTINUOUS
 62
    7
 10
14.445789113284093
 20
6.6319753720947947
 40
3.7520529323844518
 50
58.572789232041316
 51
78.791386217036688
  0
ARC
  8
_0-0_
  6
CONTINUOUS
 62
    7
 10
14.352101647679291
 20
8.8438546443701203
 40
1.6834978839767911
 50
60.733399657525844
 51
94.588425785820803
  0
ARC
  8
_0-0_
  6
CONTINUOUS
 62
    7
 10
13.834775820740504
 20
9.9725655395091142
 40
0.6695163110115115
 50
55.142863678765153
 51
120.08524826045463
  0
LINE
  8
_0-0_
  6
CONTINUOUS
 62
    7
 10
18.497121393275449
 20
4.4765130557919495
 11
27.23607999048906
 21
4.5962248173976068
  0
LINE
  8
_0-0_
  6
CONTINUOUS
 62
    7
 10
-16.437936882290273
 20
10.426652216504531
 11
-15.126462558291536
 21
10.925012459624051
  0
LINE
  8
_0-0_
  6
CONTINUOUS
 62
    7
 10
-15.126462558291536
 20
10.925012459624051
 11
-14.392036936852264
 21
10.793865027224181
  0
LINE
  8
_0-0_
  6
CONTINUOUS
 62
    7
 10
-14.392036936852264
 20
10.793865027224181
 11
-13.998594639652623
 21
10.374193243544577
  0
LINE
  8
_0-0_
  6
CONTINUOUS
 62
    7
 10
-14.392036936852264
 20
10.505340675944476
 11
-13.998594639652623
 21
10.374193243544577
  0
LINE
  8
_0-0_
  6
CONTINUOUS
 62
    7
 10
-13.998594639652623
 20
10.374193243544577
 11
-13.710070288372918
 21
10.243045811144706
  0
LINE
  8
_0-0_
  6
CONTINUOUS
 62
    7
 10
-13.710070288372918
 20
10.243045811144706
 11
-13.526463883013093
 21
10.033209919304918
  0
LINE
  8
_0-0_
  6
CONTINUOUS
 62
    7
 10
-13.526463883013093
 20
10.033209919304918
 11
-13.552693369493056
 21
9.3512432708255719
  0
LINE
  8
_0-0_
  6
CONTINUOUS
 62
    7
 10
-14.392036936852264
 20
10.505340675944476
 11
-15.729740747330965
 21
9.9282919733850097
  0
LINE
  8
_0-0_
  6
CONTINUOUS
 62
    7
 10
-14.392036936852264
 20
10.505340675944476
 11
-15.126462558291536
 21
10.925012459624051
  0
LINE
  8
_0-0_
  6
CONTINUOUS
 62
    7
 10
-16.437936882290273
 20
10.426652216504531
 11
-15.729740747330965
 21
9.9282919733850097
  0
LINE
  8
_0-0_
  6
CONTINUOUS
 62
    7
 10
-16.437936882290273
 20
10.426652216504531
 11
-16.805149693009923
 21
8.5905881629063092
  0
LINE
  8
_0-0_
  6
CONTINUOUS
 62
    7
 10
-16.805149693009923
 20
8.5905881629063092
 11
-15.834658693250873
 21
7.6987856225871756
  0
LINE
  8
_0-0_
  6
CONTINUOUS
 62
    7
 10
-15.834658693250873
 20
7.6987856225871756
 11
-14.785479234051877
 21
7.5938676766672675
  0
LINE
  8
_0-0_
  6
CONTINUOUS
 62
    7
 10
-14.785479234051877
 20
7.5938676766672675
 11
-14.44449590981219
 21
7.7774740820270925
  0
LINE
  8
_0-0_
  6
CONTINUOUS
 62
    7
 10
-15.729740747330965
 20
9.9282919733850097
 11
-16.096953558050615
 21
8.2758343251466133
  0
LINE
  8
_0-0_
  6
CONTINUOUS
 62
    7
 10
-16.096953558050615
 20
8.2758343251466133
 11
-16.805149693009923
 21
8.5905881629063092
  0
LINE
  8
_0-0_
  6
CONTINUOUS
 62
    7
 10
-16.096953558050615
 20
8.2758343251466133
 11
-15.624822801411057
 21
7.6463266496272215
  0
LINE
  8
_0-0_
  6
CONTINUOUS
 62
    7
 10
-14.549413855732098
 20
9.9020624869050469
 11
-13.290398504693314
 21
9.1414073789857841
  0
ARC
  8
_0-0_
  6
CONTINUOUS
 62
    7
 10
-13.574221344245473
 20
8.6066722819741788
 40
0.6053899802833429
 50
62.04185374811091
 51
163.93557985605105
  0
LINE
  8
_0-0_
  6
CONTINUOUS
 62
    7
 10
-14.077283099092568
 20
7.8561625414670093
 11
-15.54613434197114
 21
8.747965081786143
  0
LINE
  8
_0-0_
  6
CONTINUOUS
 62
    7
 10
-14.44449590981219
 20
7.7774740820270925
 11
-14.287118990932356
 21
7.9348510009069262
  0
ARC
  8
_0-0_
  6
CONTINUOUS
 62
    7
 10
-15.16340041310508
 20
8.9259165061158772
 40
0.5190452219461749
 50
188.0887796774324
 51
271.18214717636999
  0
ARC
  8
_0-0_
  6
CONTINUOUS
 62
    7
 10
-14.847924662873424
 20
8.9008902070891143
 40
0.8307453928033079
 50
100.21949107308626
 51
183.31285857202113
  0
ARC
  8
_0-0_
  6
CONTINUOUS
 62
    7
 10
-14.46926820259884
 20
8.7319359511595085
 40
1.118010435175844
 50
72.320763717107596
 51
118.06809409836151
  0
ARC
  8
_0-0_
  6
CONTINUOUS
 62
    7
 10
-14.256517923372428
 20
9.5129917707853711
 40
0.3111509493639658
 50
4.0282636664930127
 51
65.955776730625857
  0
ARC
  8
_0-0_
  6
CONTINUOUS
 62
    7
 10
14.498845018821839
 20
3.114582677132526
 40
2.3089842120462571
 50
355.4659854309765
 51
67.603598379399855
  0
ARC
  8
_0-0_
  6
CONTINUOUS
 62
    7
 10
12.914740470851143
 20
-8.65566246856479
 40
1.2323678325391161
 50
109.10172122941029
 51
218.63259770961852
  0
LINE
  8
_0-0_
  6
CONTINUOUS
 62
    7
 10
12.511452674475237
 20
-7.4911499405207902
 11
13.326571556868856
 21
-7.7149080650994275
  0
LINE
  8
_0-0_
  6
CONTINUOUS
 62
    7
 10
11.952057363028644
 20
-9.425059445807582
 11
12.703245352685485
 21
-9.6488175703862193
  0
ARC
  8
_0-0_
  6
CONTINUOUS
 62
    7
 10
23.234747209831056
 20
-14.175468708166227
 40
3.5335132037276935
 50
155.34617846939975
 51
188.00252086974686
  0
ARC
  8
_0-0_
  6
CONTINUOUS
 62
    7
 10
20.956546019188437
 20
-14.165712728050243
 40
1.3199566562868812
 50
202.33820620507427
 51
225.98118288626293
  0
ARC
  8
_0-0_
  6
CONTINUOUS
 62
    7
 10
20.224624414920129
 20
-14.445896231753741
 40
0.6942027223040272
 50
254.51785611749528
 51
310.84291086614473
  0
ARC
  8
_0-0_
  6
CONTINUOUS
 62
    7
 10
19.601099571701781
 20
-12.936158257531352
 40
2.3025860118617483
 50
297.90214001281231
 51
341.24570250698946
  0
ARC
  8
_0-0_
  6
CONTINUOUS
 62
    7
 10
19.751390358585383
 20
-12.913870353024711
 40
2.168552130634291
 50
339.41110642703262
 51
4.4823672813390081
  0
ARC
  8
_0-0_
  6
CONTINUOUS
 62
    7
 10
21.15922135197178
 20
-12.546669495847061
 40
0.7795793889543075
 50
345.30766842696318
 51
45.444834070686305
  0
ARC
  8
_0-0_
  6
CONTINUOUS
 62
    7
 10
21.410490900331894
 20
-12.164259135709406
 40
0.3426219286697401
 50
30.345798280968516
 51
117.13379230240947
  0
ARC
  8
_0-0_
  6
CONTINUOUS
 62
    7
 10
21.318217698579048
 20
-12.870828494307935
 40
1.0135055429591391
 50
93.619700733650291
 51
135.51464190755124
  0
ARC
  8
_0-0_
  6
CONTINUOUS
 62
    7
 10
22.053831738545824
 20
-14.27546412339054
 40
2.5690920998367703
 50
124.59555555303906
 51
142.21885865522762
  0
LINE
  8
_0-0_
  6
CONTINUOUS
 62
    7
 10
20.039315294227976
 20
-15.114908899378667
 11
18.147147187850408
 21
-14.100211583906278
  0
ARC
  8
_0-0_
  6
CONTINUOUS
 62
    7
 10
21.264702704014979
 20
-13.607706624015796
 40
3.1562182326139649
 50
165.89518247903132
 51
188.97727709804002
  0
ARC
  8
_0-0_
  6
CONTINUOUS
 62
    7
 10
19.843734352241455
 20
-13.043699308173705
 40
1.6528757166851054
 50
120.15750687826966
 51
172.87015549070259
  0
ARC
  8
_0-0_
  6
CONTINUOUS
 62
    7
 10
20.154375981288467
 20
-12.698383727876779
 40
1.5737264735890049
 50
91.09205748996483
 51
136.47200335647958
  0
LINE
  8
_0-0_
  6
CONTINUOUS
 62
    7
 10
21.517862748609161
 20
-11.859344814463304
 11
20.113394477836351
 21
-11.125190945650237
  0
ARC
  8
_0-0_
  6
CONTINUOUS
 62
    7
 10
17.806602936355318
 20
-13.101567094872228
 40
1.205956335785596
 50
255.6100920702693
 51
295.01899926962125
  0
ARC
  8
_0-0_
  6
CONTINUOUS
 62
    7
 10
17.591989707299632
 20
-13.422176770362233
 40
0.8517729456627941
 50
190.19562949064385
 51
264.26671972541794
  0
ARC
  8
_0-0_
  6
CONTINUOUS
 62
    7
 10
19.411745650878032
 20
-13.23330069119263
 40
2.6796908214891682
 50
137.04820073838192
 51
187.2817693762816
  0
ARC
  8
_0-0_
  6
CONTINUOUS
 62
    7
 10
19.997900463259015
 20
-12.895474934360555
 40
2.9502667132557554
 50
112.23399407838285
 51
149.70947858864787
  0
ARC
  8
_0-0_
  6
CONTINUOUS
 62
    7
 10
19.351015560238267
 20
-11.550954035397629
 40
1.4637127873873141
 50
80.320483410111819
 51
108.7074935058905
  0
ARC
  8
_0-0_
  6
CONTINUOUS
 62
    7
 10
19.498791897392692
 20
-10.514882992425944
 40
0.4185184732502713
 50
358.97673255485273
 51
76.411748378528273
  0
ARC
  8
_0-0_
  6
CONTINUOUS
 62
    7
 10
19.192257319817742
 20
-10.757742242930396
 40
0.7622409870083886
 50
334.38451567935016
 51
17.987334652066298
  0
LINE
  8
_0-0_
  6
CONTINUOUS
 62
    7
 10
19.691273869315296
 20
-10.126910001112412
 11
19.239334352789001
 21
-9.9386018692264511
  0
ARC
  8
_0-0_
  6
CONTINUOUS
 62
    7
 10
19.190374238498777
 20
-11.82356626940541
 40
1.8856001386119319
 50
88.512132471176415
 51
127.81978058727391
  0
ARC
  8
_0-0_
  6
CONTINUOUS
 62
    7
 10
19.395175565384875
 20
-12.163235179024587
 40
2.2799735435358568
 50
126.6512374390479
 51
154.49315816887994
  0
ARC
  8
_0-0_
  6
CONTINUOUS
 62
    7
 10
19.818134084481045
 20
-13.148759970166898
 40
3.1661169854755729
 50
141.58388290992838
 51
161.81460555805941
  0
ARC
  8
_0-0_
  6
CONTINUOUS
 62
    7
 10
18.899491469488794
 20
-12.993279536942614
 40
2.2491332777819451
 50
158.27170291060204
 51
197.43312623280198
  0
ARC
  8
_0-0_
  6
CONTINUOUS
 62
    7
 10
18.877287191852758
 20
-10.959628382221217
 40
0.3644747552051608
 50
358.66778014612976
 51
17.592424562185666
  0
ARC
  8
_0-0_
  6
CONTINUOUS
 62
    7
 10
19.106081572094098
 20
-11.22231822620204
 40
0.3912687734494161
 50
72.349875780065503
 51
107.65012421993451
  0
ARC
  8
_0-0_
  6
CONTINUOUS
 62
    7
 10
19.766597122069697
 20
-13.441133122305393
 40
2.7062523295031502
 50
106.73270769314728
 51
124.29503316192135
  0
ARC
  8
_0-0_
  6
CONTINUOUS
 62
    7
 10
19.348462741598439
 20
-12.923062449509805
 40
2.0433513744450247
 50
122.79383817917879
 51
157.39039206982082
  0
ARC
  8
_0-0_
  6
CONTINUOUS
 62
    7
 10
18.478654902873728
 20
-12.953150417153884
 40
1.3032925782800431
 50
141.25601704504601
 51
188.88114859867829
  0
ARC
  8
_0-0_
  6
CONTINUOUS
 62
    7
 10
18.642561105455428
 20
-12.867942990754036
 40
1.4795605305558142
 50
191.16191495214841
 51
207.19610109947456
  0
ARC
  8
_0-0_
  6
CONTINUOUS
 62
    7
 10
17.532521510884408
 20
-13.162096667379592
 40
0.4340352655865727
 50
241.67289226183448
 51
302.73230406169762
  0
LINE
  8
_0-0_
  6
CONTINUOUS
 62
    7
 10
17.262098967986361
 20
-13.271655803608033
 11
18.034162308718805
 21
-13.591779627814168
  0
LINE
  8
_0-0_
  6
CONTINUOUS
 62
    7
 10
19.224715695182255
 20
-10.849468125067935
 11
19.860751188012671
 21
-11.087281473730831
  0
LINE
  8
_0-0_
  6
CONTINUOUS
 62
    7
 10
19.408811671486347
 20
-10.578849517638735
 11
19.408811671486347
 21
-10.88014252865627
  0
LINE
  8
_0-0_
  6
CONTINUOUS
 62
    7
 10
19.444315677711476
 20
-14.795833384073516
 11
13.640587849846867
 21
-19.925390807691223
  0
LINE
  8
_0-0_
  6
CONTINUOUS
 62
    7
 10
24.068639325214093
 20
-10.708678645119184
 11
21.9374645976742
 21
-12.59229267198525
  0
ENDBLK
  0
ENDSEC
  0
SECTION
  2
ENTITIES
  0
INSERT
  2
-002-2
  8
_0-0_
 10
147.75909443670943
 20
108.80564867213805
 41
1
 42
1
 50
0
  0
ENDSEC
  0
EOF
